  0
SECTION
  2
HEADER
  9
$ACADVER
  1
AC1014
  9
$ACADMAINTVER
 70
     0
  9
$DWGCODEPAGE
  3
ANSI_1252
  9
$INSBASE
 10
-314.891958
 20
66.761062
 30
0.0
  9
$EXTMIN
 10
-391.05706
 20
32.085918
 30
0.0
  9
$EXTMAX
 10
-232.914203
 20
77.758315
 30
0.0
  9
$LIMMIN
 10
0.0
 20
0.0
  9
$LIMMAX
 10
420.0
 20
297.0
  9
$ORTHOMODE
 70
     0
  9
$REGENMODE
 70
     1
  9
$FILLMODE
 70
     1
  9
$QTEXTMODE
 70
     0
  9
$MIRRTEXT
 70
     1
  9
$DRAGMODE
 70
     2
  9
$LTSCALE
 40
1.0
  9
$OSMODE
 70
     0
  9
$ATTMODE
 70
     1
  9
$TEXTSIZE
 40
3.0
  9
$TRACEWID
 40
10.0
  9
$TEXTSTYLE
  7
STANDARD
  9
$CLAYER
  8
0
  9
$CELTYPE
  6
BYLAYER
  9
$CECOLOR
 62
   256
  9
$CELTSCALE
 40
1.0
  9
$DELOBJ
 70
     1
  9
$DISPSILH
 70
     0
  9
$DIMSCALE
 40
1.0
  9
$DIMASZ
 40
3.0
  9
$DIMEXO
 40
2.5
  9
$DIMDLI
 40
10.0
  9
$DIMRND
 40
0.0
  9
$DIMDLE
 40
1.25
  9
$DIMEXE
 40
2.5
  9
$DIMTP
 40
0.0
  9
$DIMTM
 40
0.0
  9
$DIMTXT
 40
3.0
  9
$DIMCEN
 40
-3.0
  9
$DIMTSZ
 40
0.0
  9
$DIMTOL
 70
     0
  9
$DIMLIM
 70
     0
  9
$DIMTIH
 70
     0
  9
$DIMTOH
 70
     0
  9
$DIMSE1
 70
     0
  9
$DIMSE2
 70
     0
  9
$DIMTAD
 70
     0
  9
$DIMZIN
 70
     0
  9
$DIMBLK
  1

  9
$DIMASO
 70
     1
  9
$DIMSHO
 70
     0
  9
$DIMPOST
  1

  9
$DIMAPOST
  1

  9
$DIMALT
 70
     0
  9
$DIMALTD
 70
     2
  9
$DIMALTF
 40
0.039
  9
$DIMLFAC
 40
1.0
  9
$DIMTOFL
 70
     0
  9
$DIMTVP
 40
1.5
  9
$DIMTIX
 70
     0
  9
$DIMSOXD
 70
     0
  9
$DIMSAH
 70
     0
  9
$DIMBLK1
  1

  9
$DIMBLK2
  1

  9
$DIMSTYLE
  2
STANDARD
  9
$DIMCLRD
 70
     0
  9
$DIMCLRE
 70
     0
  9
$DIMCLRT
 70
     0
  9
$DIMTFAC
 40
0.75
  9
$DIMGAP
 40
1.5
  9
$DIMJUST
 70
     0
  9
$DIMSD1
 70
     0
  9
$DIMSD2
 70
     0
  9
$DIMTOLJ
 70
     1
  9
$DIMTZIN
 70
     0
  9
$DIMALTZ
 70
     0
  9
$DIMALTTZ
 70
     0
  9
$DIMFIT
 70
     5
  9
$DIMUPT
 70
     0
  9
$DIMUNIT
 70
     2
  9
$DIMDEC
 70
     2
  9
$DIMTDEC
 70
     2
  9
$DIMALTU
 70
     2
  9
$DIMALTTD
 70
     2
  9
$DIMTXSTY
  7
STANDARD
  9
$DIMAUNIT
 70
     0
  9
$LUNITS
 70
     2
  9
$LUPREC
 70
     2
  9
$SKETCHINC
 40
1.0
  9
$FILLETRAD
 40
0.0
  9
$AUNITS
 70
     0
  9
$AUPREC
 70
     4
  9
$MENU
  1
C:\ACADWIN\SUPPORT\ACAD
  9
$ELEVATION
 40
0.0
  9
$PELEVATION
 40
0.0
  9
$THICKNESS
 40
0.0
  9
$LIMCHECK
 70
     0
  9
$BLIPMODE
 70
     0
  9
$CHAMFERA
 40
0.0
  9
$CHAMFERB
 40
0.0
  9
$CHAMFERC
 40
0.0
  9
$CHAMFERD
 40
0.0
  9
$SKPOLY
 70
     0
  9
$TDCREATE
 40
2450403.663950579
  9
$TDUPDATE
 40
2451551.470560069
  9
$TDINDWG
 40
0.0323497685
  9
$TDUSRTIMER
 40
0.0323497685
  9
$USRTIMER
 70
     1
  9
$ANGBASE
 50
0.0
  9
$ANGDIR
 70
     0
  9
$PDMODE
 70
     0
  9
$PDSIZE
 40
0.0
  9
$PLINEWID
 40
0.0
  9
$COORDS
 70
     1
  9
$SPLFRAME
 70
     0
  9
$SPLINETYPE
 70
     6
  9
$SPLINESEGS
 70
     8
  9
$ATTDIA
 70
     0
  9
$ATTREQ
 70
     1
  9
$HANDLING
 70
     1
  9
$HANDSEED
  5
51
  9
$SURFTAB1
 70
    18
  9
$SURFTAB2
 70
    18
  9
$SURFTYPE
 70
     6
  9
$SURFU
 70
    18
  9
$SURFV
 70
    18
  9
$UCSNAME
  2

  9
$UCSORG
 10
0.0
 20
0.0
 30
0.0
  9
$UCSXDIR
 10
1.0
 20
0.0
 30
0.0
  9
$UCSYDIR
 10
0.0
 20
1.0
 30
0.0
  9
$PUCSNAME
  2

  9
$PUCSORG
 10
0.0
 20
0.0
 30
0.0
  9
$PUCSXDIR
 10
1.0
 20
0.0
 30
0.0
  9
$PUCSYDIR
 10
0.0
 20
1.0
 30
0.0
  9
$USERI1
 70
     0
  9
$USERI2
 70
     0
  9
$USERI3
 70
     0
  9
$USERI4
 70
     0
  9
$USERI5
 70
     0
  9
$USERR1
 40
0.0
  9
$USERR2
 40
0.0
  9
$USERR3
 40
0.0
  9
$USERR4
 40
0.0
  9
$USERR5
 40
0.0
  9
$WORLDVIEW
 70
     1
  9
$SHADEDGE
 70
     3
  9
$SHADEDIF
 70
    70
  9
$TILEMODE
 70
     1
  9
$MAXACTVP
 70
    16
  9
$PINSBASE
 10
0.0
 20
0.0
 30
0.0
  9
$PLIMCHECK
 70
     0
  9
$PEXTMIN
 10
1.000000E+20
 20
1.000000E+20
 30
1.000000E+20
  9
$PEXTMAX
 10
-1.000000E+20
 20
-1.000000E+20
 30
-1.000000E+20
  9
$PLIMMIN
 10
0.0
 20
0.0
  9
$PLIMMAX
 10
420.0
 20
297.0
  9
$UNITMODE
 70
     0
  9
$VISRETAIN
 70
     0
  9
$PLINEGEN
 70
     0
  9
$PSLTSCALE
 70
     1
  9
$TREEDEPTH
 70
  3020
  9
$PICKSTYLE
 70
     1
  9
$CMLSTYLE
  2
STANDARD
  9
$CMLJUST
 70
     0
  9
$CMLSCALE
 40
1.0
  9
$PROXYGRAPHICS
 70
     1
  9
$MEASUREMENT
 70
     0
  0
ENDSEC
  0
SECTION
  2
CLASSES
  0
CLASS
  1
DICTIONARYVAR
  2
AcDbDictionaryVar
  3
"AutoCAD"
 90
        0
280
     0
281
     0
  0
CLASS
  1
LWPOLYLINE
  2
AcDbPolyline
  3
"AutoCAD"
 90
        0
280
     0
281
     1
  0
ENDSEC
  0
SECTION
  2
TABLES
  0
TABLE
  2
VPORT
  5
12
100
AcDbSymbolTable
 70
     2
  0
VPORT
  5
50
100
AcDbSymbolTableRecord
100
AcDbViewportTableRecord
  2
*ACTIVE
 70
     0
 10
0.0
 20
0.0
 11
1.0
 21
1.0
 12
-299.720164
 22
59.680825
 13
0.0
 23
0.0
 14
5.0
 24
5.0
 15
10.0
 25
10.0
 16
0.0
 26
0.0
 36
1.0
 17
0.0
 27
0.0
 37
0.0
 40
142.483532
 41
1.465261
 42
50.0
 43
0.0
 44
0.0
 50
0.0
 51
0.0
 71
     0
 72
 20000
 73
     1
 74
     1
 75
     0
 76
     0
 77
     0
 78
     0
  0
ENDTAB
  0
TABLE
  2
LTYPE
  5
D
100
AcDbSymbolTable
 70
     1
  0
LTYPE
  5
E
100
AcDbSymbolTableRecord
100
AcDbLinetypeTableRecord
  2
BYBLOCK
 70
     0
  3

 72
    65
 73
     0
 40
0.0
  0
LTYPE
  5
F
100
AcDbSymbolTableRecord
100
AcDbLinetypeTableRecord
  2
BYLAYER
 70
     0
  3

 72
    65
 73
     0
 40
0.0
  0
LTYPE
  5
5
100
AcDbSymbolTableRecord
100
AcDbLinetypeTableRecord
  2
CONTINUOUS
 70
     0
  3
Solid line
 72
    65
 73
     0
 40
0.0
  0
ENDTAB
  0
TABLE
  2
LAYER
  5
A
100
AcDbSymbolTable
 70
     3
  0
LAYER
  5
4
100
AcDbSymbolTableRecord
100
AcDbLayerTableRecord
  2
0
 70
     0
 62
     7
  6
CONTINUOUS
  0
LAYER
  5
21
100
AcDbSymbolTableRecord
100
AcDbLayerTableRecord
  2
ANCON-BOLT
 70
     0
 62
     1
  6
CONTINUOUS
  0
LAYER
  5
1E
100
AcDbSymbolTableRecord
100
AcDbLayerTableRecord
  2
ANCON-TEXT
 70
     0
 62
     6
  6
CONTINUOUS
  0
ENDTAB
  0
TABLE
  2
STYLE
  5
B
100
AcDbSymbolTable
 70
     2
  0
STYLE
  5
C
100
AcDbSymbolTableRecord
100
AcDbTextStyleTableRecord
  2
STANDARD
 70
     0
 40
0.0
 41
1.0
 50
0.0
 71
     0
 42
3.0
  3
txt.shx
  4

  0
STYLE
  5
1F
100
AcDbSymbolTableRecord
100
AcDbTextStyleTableRecord
  2
ROMANS
 70
     0
 40
9.0
 41
1.0
 50
0.0
 71
     0
 42
9.0
  3
romans
  4

  0
ENDTAB
  0
TABLE
  2
VIEW
  5
10
100
AcDbSymbolTable
 70
     0
  0
ENDTAB
  0
TABLE
  2
UCS
  5
11
100
AcDbSymbolTable
 70
     0
  0
ENDTAB
  0
TABLE
  2
APPID
  5
14
100
AcDbSymbolTable
 70
     1
  0
APPID
  5
15
100
AcDbSymbolTableRecord
100
AcDbRegAppTableRecord
  2
ACAD
 70
     0
  0
ENDTAB
  0
TABLE
  2
DIMSTYLE
  5
16
100
AcDbSymbolTable
 70
     1
  0
DIMSTYLE
105
1C
100
AcDbSymbolTableRecord
100
AcDbDimStyleTableRecord
  2
STANDARD
 70
     0
  3

  4

  5

  6

  7

 40
1.0
 41
0.18
 42
0.0625
 43
0.38
 44
0.18
 45
0.0
 46
0.0
 47
0.0
 48
0.0
140
0.18
141
0.09
142
0.0
143
25.4
144
1.0
145
0.0
146
1.0
147
0.09
 71
     0
 72
     0
 73
     1
 74
     1
 75
     0
 76
     0
 77
     0
 78
     0
170
     0
171
     2
172
     0
173
     0
174
     0
175
     0
176
     0
177
     0
178
     0
270
     2
271
     4
272
     4
273
     2
274
     2
340
C
275
     0
280
     0
281
     0
282
     0
283
     1
284
     0
285
     0
286
     0
287
     3
288
     0
  0
ENDTAB
  0
TABLE
  2
BLOCK_RECORD
  5
1
100
AcDbSymbolTable
 70
     0
  0
BLOCK_RECORD
  5
2
100
AcDbSymbolTableRecord
100
AcDbBlockTableRecord
  2
*MODEL_SPACE
  0
BLOCK_RECORD
  5
7
100
AcDbSymbolTableRecord
100
AcDbBlockTableRecord
  2
*PAPER_SPACE
  0
ENDTAB
  0
ENDSEC
  0
SECTION
  2
BLOCKS
  0
BLOCK
  5
3
100
AcDbEntity
  8
0
100
AcDbBlockBegin
  2
*MODEL_SPACE
 70
     0
 10
0.0
 20
0.0
 30
0.0
  3
*MODEL_SPACE
  1

  0
ENDBLK
  5
6
100
AcDbEntity
  8
0
100
AcDbBlockEnd
  0
BLOCK
  5
8
100
AcDbEntity
 67
     1
  8
0
100
AcDbBlockBegin
  2
*PAPER_SPACE
 70
     0
 10
0.0
 20
0.0
 30
0.0
  3
*PAPER_SPACE
  1

  0
ENDBLK
  5
9
100
AcDbEntity
 67
     1
  8
0
100
AcDbBlockEnd
  0
ENDSEC
  0
SECTION
  2
ENTITIES
  0
TEXT
  5
1D
100
AcDbEntity
  8
ANCON-TEXT
100
AcDbText
 10
-391.485632
 20
32.085918
 30
0.0
 40
9.0
  1
ANCON M8 SET SCREW
  7
ROMANS
100
AcDbText
  0
LINE
  5
20
100
AcDbEntity
  8
ANCON-BOLT
100
AcDbLine
 10
-305.455061
 20
70.142739
 30
0.0
 11
-299.322817
 21
70.142739
 31
0.0
  0
LINE
  5
22
100
AcDbEntity
  8
ANCON-BOLT
100
AcDbLine
 10
-305.455061
 20
70.868654
 30
0.0
 11
-300.048732
 21
70.868654
 31
0.0
  0
LINE
  5
23
100
AcDbEntity
  8
ANCON-BOLT
100
AcDbLine
 10
-305.455061
 20
63.596436
 30
0.0
 11
-299.322817
 21
63.596436
 31
0.0
  0
LINE
  5
24
100
AcDbEntity
  8
ANCON-BOLT
100
AcDbLine
 10
-305.455061
 20
62.870521
 30
0.0
 11
-300.048732
 21
62.870521
 31
0.0
  0
LINE
  5
25
100
AcDbEntity
  8
ANCON-BOLT
100
AcDbLine
 10
-329.322817
 20
74.854655
 30
0.0
 11
-334.300535
 21
74.854655
 31
0.0
  0
LINE
  5
26
100
AcDbEntity
  8
ANCON-BOLT
100
AcDbLine
 10
-329.322817
 20
70.894982
 30
0.0
 11
-334.300535
 21
70.894982
 31
0.0
  0
LINE
  5
27
100
AcDbEntity
  8
ANCON-BOLT
100
AcDbLine
 10
-329.322817
 20
62.844193
 30
0.0
 11
-334.300535
 21
62.844193
 31
0.0
  0
LINE
  5
28
100
AcDbEntity
  8
ANCON-BOLT
100
AcDbLine
 10
-329.322817
 20
58.884521
 30
0.0
 11
-334.300535
 21
58.884521
 31
0.0
  0
LINE
  5
29
100
AcDbEntity
  8
ANCON-BOLT
100
AcDbLine
 10
-335.389408
 20
66.869588
 30
0.0
 11
-335.389408
 21
71.225079
 31
0.0
  0
ARC
  5
2A
100
AcDbEntity
  8
ANCON-BOLT
100
AcDbCircle
 10
-327.404341
 20
66.869588
 30
0.0
 40
7.985067
100
AcDbArc
 50
149.727359
 51
210.272641
  0
LINE
  5
2B
100
AcDbEntity
  8
ANCON-BOLT
100
AcDbLine
 10
-335.389408
 20
60.864357
 30
0.0
 11
-335.389408
 21
72.874818
 31
0.0
  0
ARC
  5
2C
100
AcDbEntity
  8
ANCON-BOLT
100
AcDbCircle
 10
-333.045059
 20
60.864357
 30
0.0
 40
2.344349
100
AcDbArc
 50
122.380065
 51
237.619935
  0
ARC
  5
2D
100
AcDbEntity
  8
ANCON-BOLT
100
AcDbCircle
 10
-333.045059
 20
72.874818
 30
0.0
 40
2.344349
100
AcDbArc
 50
122.380065
 51
237.619935
  0
LINE
  5
2E
100
AcDbEntity
  8
ANCON-BOLT
100
AcDbLine
 10
-314.891958
 20
77.64979
 30
0.0
 11
-314.891958
 21
55.872334
 31
0.0
  0
LINE
  5
2F
100
AcDbEntity
  8
ANCON-BOLT
100
AcDbLine
 10
-312.714213
 20
77.64979
 30
0.0
 11
-312.714213
 21
55.872334
 31
0.0
  0
ARC
  5
30
100
AcDbEntity
  8
ANCON-BOLT
100
AcDbCircle
 10
-313.440128
 20
66.761062
 30
0.0
 40
7.985067
100
AcDbArc
 50
329.727359
 51
30.272641
  0
ARC
  5
31
100
AcDbEntity
  8
ANCON-BOLT
100
AcDbCircle
 10
-304.729145
 20
66.761062
 30
0.0
 40
7.985067
100
AcDbArc
 50
149.727359
 51
210.272641
  0
LINE
  5
32
100
AcDbEntity
  8
ANCON-BOLT
100
AcDbLine
 10
-305.455061
 20
72.766293
 30
0.0
 11
-305.455061
 21
60.755832
 31
0.0
  0
LINE
  5
33
100
AcDbEntity
  8
ANCON-BOLT
100
AcDbLine
 10
-312.714213
 20
72.766293
 30
0.0
 11
-312.714213
 21
60.755832
 31
0.0
  0
LINE
  5
34
100
AcDbEntity
  8
ANCON-BOLT
100
AcDbLine
 10
-329.322817
 20
55.98086
 30
0.0
 11
-329.322817
 21
77.758315
 31
0.0
  0
LINE
  5
35
100
AcDbEntity
  8
ANCON-BOLT
100
AcDbLine
 10
-329.322817
 20
60.864357
 30
0.0
 11
-329.322817
 21
72.874818
 31
0.0
  0
LINE
  5
36
100
AcDbEntity
  8
ANCON-BOLT
100
AcDbLine
 10
-327.145072
 20
55.98086
 30
0.0
 11
-327.145072
 21
77.758315
 31
0.0
  0
LINE
  5
37
100
AcDbEntity
  8
ANCON-BOLT
100
AcDbLine
 10
-327.145072
 20
62.870521
 30
0.0
 11
-314.891958
 21
62.870521
 31
0.0
  0
LINE
  5
38
100
AcDbEntity
  8
ANCON-BOLT
100
AcDbLine
 10
-327.145072
 20
63.596436
 30
0.0
 11
-314.891958
 21
63.596436
 31
0.0
  0
LINE
  5
39
100
AcDbEntity
  8
ANCON-BOLT
100
AcDbLine
 10
-329.322817
 20
55.98086
 30
0.0
 11
-327.145072
 21
55.98086
 31
0.0
  0
ARC
  5
3A
100
AcDbEntity
  8
ANCON-BOLT
100
AcDbCircle
 10
-307.79941
 20
60.755832
 30
0.0
 40
2.344349
100
AcDbArc
 50
302.380065
 51
57.619935
  0
ARC
  5
3B
100
AcDbEntity
  8
ANCON-BOLT
100
AcDbCircle
 10
-310.369863
 20
60.755832
 30
0.0
 40
2.344349
100
AcDbArc
 50
122.380065
 51
237.619935
  0
LINE
  5
3C
100
AcDbEntity
  8
ANCON-BOLT
100
AcDbLine
 10
-311.62534
 20
58.775995
 30
0.0
 11
-306.543933
 21
58.775995
 31
0.0
  0
LINE
  5
3D
100
AcDbEntity
  8
ANCON-BOLT
100
AcDbLine
 10
-314.891958
 20
55.872334
 30
0.0
 11
-312.714213
 21
55.872334
 31
0.0
  0
LINE
  5
3E
100
AcDbEntity
  8
ANCON-BOLT
100
AcDbLine
 10
-311.62534
 20
62.735668
 30
0.0
 11
-306.543933
 21
62.735668
 31
0.0
  0
LINE
  5
3F
100
AcDbEntity
  8
ANCON-BOLT
100
AcDbLine
 10
-305.455061
 20
66.761062
 30
0.0
 11
-305.455061
 21
62.405571
 31
0.0
  0
LINE
  5
40
100
AcDbEntity
  8
ANCON-BOLT
100
AcDbLine
 10
-327.145072
 20
70.868654
 30
0.0
 11
-314.891958
 21
70.868654
 31
0.0
  0
LINE
  5
41
100
AcDbEntity
  8
ANCON-BOLT
100
AcDbLine
 10
-327.145072
 20
70.142739
 30
0.0
 11
-314.891958
 21
70.142739
 31
0.0
  0
LINE
  5
42
100
AcDbEntity
  8
ANCON-BOLT
100
AcDbLine
 10
-327.145072
 20
77.758315
 30
0.0
 11
-329.322817
 21
77.758315
 31
0.0
  0
ARC
  5
43
100
AcDbEntity
  8
ANCON-BOLT
100
AcDbCircle
 10
-307.79941
 20
72.766293
 30
0.0
 40
2.344349
100
AcDbArc
 50
302.380065
 51
57.619935
  0
ARC
  5
44
100
AcDbEntity
  8
ANCON-BOLT
100
AcDbCircle
 10
-310.369863
 20
72.766293
 30
0.0
 40
2.344349
100
AcDbArc
 50
122.380065
 51
237.619935
  0
LINE
  5
45
100
AcDbEntity
  8
ANCON-BOLT
100
AcDbLine
 10
-311.62534
 20
70.786457
 30
0.0
 11
-306.543933
 21
70.786457
 31
0.0
  0
LINE
  5
46
100
AcDbEntity
  8
ANCON-BOLT
100
AcDbLine
 10
-311.62534
 20
74.746129
 30
0.0
 11
-306.543933
 21
74.746129
 31
0.0
  0
LINE
  5
47
100
AcDbEntity
  8
ANCON-BOLT
100
AcDbLine
 10
-312.714213
 20
77.64979
 30
0.0
 11
-314.891958
 21
77.64979
 31
0.0
  0
LINE
  5
48
100
AcDbEntity
  8
ANCON-BOLT
100
AcDbLine
 10
-300.048732
 20
70.868654
 30
0.0
 11
-300.048732
 21
62.870521
 31
0.0
  0
LINE
  5
49
100
AcDbEntity
  8
ANCON-BOLT
100
AcDbLine
 10
-299.322817
 20
70.142739
 30
0.0
 11
-299.322817
 21
63.596436
 31
0.0
  0
LINE
  5
4A
100
AcDbEntity
  8
ANCON-BOLT
100
AcDbLine
 10
-300.048732
 20
62.870521
 30
0.0
 11
-299.322817
 21
63.596436
 31
0.0
  0
LINE
  5
4B
100
AcDbEntity
  8
ANCON-BOLT
100
AcDbLine
 10
-300.048732
 20
70.868654
 30
0.0
 11
-299.322817
 21
70.142739
 31
0.0
  0
ENDSEC
  0
SECTION
  2
OBJECTS
  0
DICTIONARY
  5
1A
100
AcDbDictionary
  3
ACAD_GROUP
350
18
  3
ACAD_MLINESTYLE
350
19
  0
DICTIONARY
  5
18
102
{ACAD_REACTORS
330
1A
102
}
100
AcDbDictionary
  0
DICTIONARY
  5
19
102
{ACAD_REACTORS
330
1A
102
}
100
AcDbDictionary
  3
STANDARD
350
1B
  0
MLINESTYLE
  5
1B
102
{ACAD_REACTORS
330
19
102
}
100
AcDbMlineStyle
  2
STANDARD
 70
     0
  3

 62
   256
 51
90.0
 52
90.0
 71
     2
 49
0.5
 62
   256
  6
BYLAYER
 49
-0.5
 62
   256
  6
BYLAYER
  0
ENDSEC
  0
EOF
