  0
SECTION
  2
HEADER
  9
$ACADVER
  1
AC1015
  9
$ACADMAINTVER
 70
    10
  9
$DWGCODEPAGE
  3
ANSI_1252
  9
$INSBASE
 10
0.0
 20
0.0
 30
0.0
  9
$EXTMIN
 10
1951.912702801029
 20
220.6136681084823
 30
0.0
  9
$EXTMAX
 10
2062.099655326885
 20
266.5154334718448
 30
0.0
  9
$LIMMIN
 10
0.0
 20
0.0
  9
$LIMMAX
 10
12.0
 20
9.0
  9
$ORTHOMODE
 70
     0
  9
$REGENMODE
 70
     1
  9
$FILLMODE
 70
     1
  9
$QTEXTMODE
 70
     0
  9
$MIRRTEXT
 70
     0
  9
$LTSCALE
 40
1.0
  9
$ATTMODE
 70
     1
  9
$TEXTSIZE
 40
40.0
  9
$TRACEWID
 40
0.05
  9
$TEXTSTYLE
  7
ROMANS
  9
$CLAYER
  8
DIMS
  9
$CELTYPE
  6
BYLAYER
  9
$CECOLOR
 62
   256
  9
$CELTSCALE
 40
1.0
  9
$DISPSILH
 70
     0
  9
$DIMSCALE
 40
1.0
  9
$DIMASZ
 40
2.0
  9
$DIMEXO
 40
4.5
  9
$DIMDLI
 40
0.0
  9
$DIMRND
 40
0.01
  9
$DIMDLE
 40
0.0
  9
$DIMEXE
 40
1.5
  9
$DIMTP
 40
0.0
  9
$DIMTM
 40
0.0
  9
$DIMTXT
 40
1.8
  9
$DIMCEN
 40
0.0
  9
$DIMTSZ
 40
0.0
  9
$DIMTOL
 70
     0
  9
$DIMLIM
 70
     0
  9
$DIMTIH
 70
     0
  9
$DIMTOH
 70
     0
  9
$DIMSE1
 70
     0
  9
$DIMSE2
 70
     0
  9
$DIMTAD
 70
     1
  9
$DIMZIN
 70
    12
  9
$DIMBLK
  1

  9
$DIMASO
 70
     1
  9
$DIMSHO
 70
     1
  9
$DIMPOST
  1

  9
$DIMAPOST
  1

  9
$DIMALT
 70
     0
  9
$DIMALTD
 70
     2
  9
$DIMALTF
 40
25.4
  9
$DIMLFAC
 40
1.0
  9
$DIMTOFL
 70
     0
  9
$DIMTVP
 40
0.0
  9
$DIMTIX
 70
     0
  9
$DIMSOXD
 70
     0
  9
$DIMSAH
 70
     0
  9
$DIMBLK1
  1

  9
$DIMBLK2
  1

  9
$DIMSTYLE
  2
1-1
  9
$DIMCLRD
 70
     0
  9
$DIMCLRE
 70
     0
  9
$DIMCLRT
 70
     0
  9
$DIMTFAC
 40
1.25
  9
$DIMGAP
 40
1.0
  9
$DIMJUST
 70
     0
  9
$DIMSD1
 70
     0
  9
$DIMSD2
 70
     0
  9
$DIMTOLJ
 70
     1
  9
$DIMTZIN
 70
    12
  9
$DIMALTZ
 70
    12
  9
$DIMALTTZ
 70
    12
  9
$DIMUPT
 70
     0
  9
$DIMDEC
 70
     4
  9
$DIMTDEC
 70
     4
  9
$DIMALTU
 70
     2
  9
$DIMALTTD
 70
     2
  9
$DIMTXSTY
  7
ROMANS
  9
$DIMAUNIT
 70
     0
  9
$DIMADEC
 70
     2
  9
$DIMALTRND
 40
0.0
  9
$DIMAZIN
 70
     0
  9
$DIMDSEP
 70
    46
  9
$DIMATFIT
 70
     3
  9
$DIMFRAC
 70
     0
  9
$DIMLDRBLK
  1

  9
$DIMLUNIT
 70
     2
  9
$DIMLWD
 70
    -2
  9
$DIMLWE
 70
    -2
  9
$DIMTMOVE
 70
     2
  9
$LUNITS
 70
     2
  9
$LUPREC
 70
     4
  9
$SKETCHINC
 40
0.1
  9
$FILLETRAD
 40
0.5
  9
$AUNITS
 70
     0
  9
$AUPREC
 70
     0
  9
$MENU
  1
acad
  9
$ELEVATION
 40
0.0
  9
$PELEVATION
 40
0.0
  9
$THICKNESS
 40
0.0
  9
$LIMCHECK
 70
     0
  9
$CHAMFERA
 40
0.5
  9
$CHAMFERB
 40
0.5
  9
$CHAMFERC
 40
0.0
  9
$CHAMFERD
 40
0.0
  9
$SKPOLY
 70
     0
  9
$TDCREATE
 40
2452202.646556944
  9
$TDUCREATE
 40
2452202.646556944
  9
$TDUPDATE
 40
2453060.741763159
  9
$TDUUPDATE
 40
2453060.741763159
  9
$TDINDWG
 40
1.4209632292
  9
$TDUSRTIMER
 40
1.4209632292
  9
$USRTIMER
 70
     1
  9
$ANGBASE
 50
0.0
  9
$ANGDIR
 70
     0
  9
$PDMODE
 70
     3
  9
$PDSIZE
 40
0.0
  9
$PLINEWID
 40
0.0
  9
$SPLFRAME
 70
     0
  9
$SPLINETYPE
 70
     6
  9
$SPLINESEGS
 70
     8
  9
$HANDSEED
  5
15970
  9
$SURFTAB1
 70
     6
  9
$SURFTAB2
 70
     6
  9
$SURFTYPE
 70
     6
  9
$SURFU
 70
     6
  9
$SURFV
 70
     6
  9
$UCSBASE
  2

  9
$UCSNAME
  2

  9
$UCSORG
 10
0.0
 20
0.0
 30
0.0
  9
$UCSXDIR
 10
1.0
 20
0.0
 30
0.0
  9
$UCSYDIR
 10
0.0
 20
1.0
 30
0.0
  9
$UCSORTHOREF
  2

  9
$UCSORTHOVIEW
 70
     0
  9
$UCSORGTOP
 10
0.0
 20
0.0
 30
0.0
  9
$UCSORGBOTTOM
 10
0.0
 20
0.0
 30
0.0
  9
$UCSORGLEFT
 10
0.0
 20
0.0
 30
0.0
  9
$UCSORGRIGHT
 10
0.0
 20
0.0
 30
0.0
  9
$UCSORGFRONT
 10
0.0
 20
0.0
 30
0.0
  9
$UCSORGBACK
 10
0.0
 20
0.0
 30
0.0
  9
$PUCSBASE
  2

  9
$PUCSNAME
  2

  9
$PUCSORG
 10
0.0
 20
0.0
 30
0.0
  9
$PUCSXDIR
 10
1.0
 20
0.0
 30
0.0
  9
$PUCSYDIR
 10
0.0
 20
1.0
 30
0.0
  9
$PUCSORTHOREF
  2

  9
$PUCSORTHOVIEW
 70
     0
  9
$PUCSORGTOP
 10
0.0
 20
0.0
 30
0.0
  9
$PUCSORGBOTTOM
 10
0.0
 20
0.0
 30
0.0
  9
$PUCSORGLEFT
 10
0.0
 20
0.0
 30
0.0
  9
$PUCSORGRIGHT
 10
0.0
 20
0.0
 30
0.0
  9
$PUCSORGFRONT
 10
0.0
 20
0.0
 30
0.0
  9
$PUCSORGBACK
 10
0.0
 20
0.0
 30
0.0
  9
$USERI1
 70
     0
  9
$USERI2
 70
     0
  9
$USERI3
 70
     0
  9
$USERI4
 70
     0
  9
$USERI5
 70
     0
  9
$USERR1
 40
0.0
  9
$USERR2
 40
0.0
  9
$USERR3
 40
0.0
  9
$USERR4
 40
0.0
  9
$USERR5
 40
0.0
  9
$WORLDVIEW
 70
     1
  9
$SHADEDGE
 70
     3
  9
$SHADEDIF
 70
    70
  9
$TILEMODE
 70
     1
  9
$MAXACTVP
 70
    16
  9
$PINSBASE
 10
0.0
 20
0.0
 30
0.0
  9
$PLIMCHECK
 70
     0
  9
$PEXTMIN
 10
1.129916750539944
 20
0.78675001625001
 30
0.0
  9
$PEXTMAX
 10
10.1692507548595
 20
7.080750146250085
 30
0.0
  9
$PLIMMIN
 10
-0.1979161059762549
 20
-0.1979166691697489
  9
$PLIMMAX
 10
11.49708424966165
 20
8.065416268476351
  9
$UNITMODE
 70
     0
  9
$VISRETAIN
 70
     0
  9
$PLINEGEN
 70
     0
  9
$PSLTSCALE
 70
     1
  9
$TREEDEPTH
 70
  3020
  9
$CMLSTYLE
  2
STANDARD
  9
$CMLJUST
 70
     0
  9
$CMLSCALE
 40
1.0
  9
$PROXYGRAPHICS
 70
     1
  9
$MEASUREMENT
 70
     0
  9
$CELWEIGHT
370
    -1
  9
$ENDCAPS
280
     0
  9
$JOINSTYLE
280
     0
  9
$LWDISPLAY
290
     0
  9
$INSUNITS
 70
     0
  9
$HYPERLINKBASE
  1

  9
$STYLESHEET
  1

  9
$XEDIT
290
     1
  9
$CEPSNTYPE
380
     0
  9
$PSTYLEMODE
290
     1
  9
$FINGERPRINTGUID
  2
{B88EE4EA-09A3-11D6-AAD2-00C04F189418}
  9
$VERSIONGUID
  2
{33823823-5121-4809-B0BD-94A7E0382440}
  9
$EXTNAMES
290
     1
  9
$PSVPSCALE
 40
0.0
  9
$OLESTARTUP
290
     0
  0
ENDSEC
  0
SECTION
  2
CLASSES
  0
CLASS
  1
DICTIONARYVAR
  2
AcDbDictionaryVar
  3
AutoCAD 2000
 90
        0
280
     0
281
     0
  0
CLASS
  1
LWPOLYLINE
  2
AcDbPolyline
  3
AutoCAD 2000
 90
    32768
280
     0
281
     1
  0
CLASS
  1
IDBUFFER
  2
AcDbIdBuffer
  3
AutoCAD 2000
 90
    32768
280
     0
281
     0
  0
CLASS
  1
ACDBDICTIONARYWDFLT
  2
AcDbDictionaryWithDefault
  3
AutoCAD 2000
 90
        0
280
     0
281
     0
  0
CLASS
  1
ACDBPLACEHOLDER
  2
AcDbPlaceHolder
  3
AutoCAD 2000
 90
        0
280
     0
281
     0
  0
CLASS
  1
LAYOUT
  2
AcDbLayout
  3
AutoCAD 2000
 90
        0
280
     0
281
     0
  0
CLASS
  1
LONG_TRANSACTION
  2
AcDbLongTransaction
  3
AutoCAD 2000
 90
    32768
280
     0
281
     0
  0
CLASS
  1
LWPOLYLINE
  2
AcDbPolyline
  3
AutoCAD 2000
 90
    32768
280
     0
281
     1
  0
CLASS
  1
HATCH
  2
AcDbHatch
  3
AutoCAD 2000
 90
    32768
280
     0
281
     1
  0
CLASS
  1
XRECORD
  2
AcDbXrecord
  3
AutoCAD 2000
 90
    32768
280
     0
281
     0
  0
ENDSEC
  0
SECTION
  2
TABLES
  0
TABLE
  2
VPORT
  5
DCE3
330
0
100
AcDbSymbolTable
 70
     2
  0
VPORT
  5
1594E
330
DCE3
100
AcDbSymbolTableRecord
100
AcDbViewportTableRecord
  2
*Active
 70
     0
 10
0.0
 20
0.0
 11
1.0
 21
1.0
 12
2020.063130246842
 22
248.3511854427596
 13
0.0
 23
0.0
 14
0.5
 24
0.5
 15
0.0
 25
0.0
 16
0.0
 26
0.0
 36
1.0
 17
0.0
 27
0.0
 37
0.0
 40
166.0902629139036
 41
1.52338811630847
 42
50.0
 43
0.0
 44
0.0
 50
0.0
 51
0.0
 71
     8
 72
   100
 73
     1
 74
     1
 75
     0
 76
     0
 77
     0
 78
     0
281
     0
 65
     1
110
0.0
120
0.0
130
0.0
111
1.0
121
0.0
131
0.0
112
0.0
122
1.0
132
0.0
 79
     0
146
0.0
  0
ENDTAB
  0
TABLE
  2
LTYPE
  5
DCE0
330
0
100
AcDbSymbolTable
 70
    26
  0
LTYPE
  5
DCEC
330
DCE0
100
AcDbSymbolTableRecord
100
AcDbLinetypeTableRecord
  2
BYBLOCK
 70
     0
  3

 72
    65
 73
     0
 40
0.0
  0
LTYPE
  5
DCED
330
DCE0
100
AcDbSymbolTableRecord
100
AcDbLinetypeTableRecord
  2
BYLAYER
 70
     0
  3

 72
    65
 73
     0
 40
0.0
  0
LTYPE
  5
DCEE
330
DCE0
100
AcDbSymbolTableRecord
100
AcDbLinetypeTableRecord
  2
CONTINUOUS
 70
     0
  3
Solid line
 72
    65
 73
     0
 40
0.0
  0
LTYPE
  5
DD0F
330
DCE0
100
AcDbSymbolTableRecord
100
AcDbLinetypeTableRecord
  2
HIDDEN1_01
 70
     0
  3
__ __ __ __ __ __ __ __ __ __ __ __ __ __ __ __
 72
    65
 73
     2
 40
5.0
 49
3.0
 74
     0
 49
-2.0
 74
     0
  0
ENDTAB
  0
TABLE
  2
LAYER
  5
DCDD
330
0
100
AcDbSymbolTable
 70
    20
  0
LAYER
  5
DCE9
330
DCDD
100
AcDbSymbolTableRecord
100
AcDbLayerTableRecord
  2
0
 70
     0
 62
     7
  6
CONTINUOUS
370
    -3
390
EBBC
  0
LAYER
  5
DD29
330
DCDD
100
AcDbSymbolTableRecord
100
AcDbLayerTableRecord
  2
DIMS
 70
     0
 62
     2
  6
CONTINUOUS
370
    -3
390
EBBC
  0
LAYER
  5
DD33
330
DCDD
100
AcDbSymbolTableRecord
100
AcDbLayerTableRecord
  2
DEFPOINTS
 70
     0
 62
     7
  6
CONTINUOUS
290
     0
370
    -3
390
EBBC
  0
LAYER
  5
EA1A
330
DCDD
100
AcDbSymbolTableRecord
100
AcDbLayerTableRecord
  2
ASHADE
 70
     4
 62
     7
  6
CONTINUOUS
370
    -3
390
EBBC
  0
LAYER
  5
15885
330
DCDD
100
AcDbSymbolTableRecord
100
AcDbLayerTableRecord
  2
Ancontension
 70
     0
 62
     1
  6
CONTINUOUS
370
    -3
390
EBBC
  0
ENDTAB
  0
TABLE
  2
STYLE
  5
DCDE
330
0
100
AcDbSymbolTable
 70
     3
  0
STYLE
  5
DCEA
330
DCDE
100
AcDbSymbolTableRecord
100
AcDbTextStyleTableRecord
  2
STANDARD
 70
     0
 40
0.0
 41
1.0
 50
0.0
 71
     0
 42
0.2
  3
txt
  4

  0
STYLE
  5
DD02
330
DCDE
100
AcDbSymbolTableRecord
100
AcDbTextStyleTableRecord
  2
ROMANS
 70
     0
 40
0.0
 41
1.0
 50
0.0
 71
     0
 42
40.0
  3
romans
  4

  0
ENDTAB
  0
TABLE
  2
VIEW
  5
DCE1
330
0
100
AcDbSymbolTable
 70
     0
  0
ENDTAB
  0
TABLE
  2
UCS
  5
DCE2
330
0
100
AcDbSymbolTable
 70
     0
  0
ENDTAB
  0
TABLE
  2
APPID
  5
DCE4
330
0
100
AcDbSymbolTable
 70
     6
  0
APPID
  5
DCEB
330
DCE4
100
AcDbSymbolTableRecord
100
AcDbRegAppTableRecord
  2
ACAD
 70
     0
  0
APPID
  5
E64D
330
DCE4
100
AcDbSymbolTableRecord
100
AcDbRegAppTableRecord
  2
AVE_FINISH
 70
     0
  0
APPID
  5
EA18
330
DCE4
100
AcDbSymbolTableRecord
100
AcDbRegAppTableRecord
  2
AVE_RENDER
 70
     0
  0
APPID
  5
EA19
330
DCE4
100
AcDbSymbolTableRecord
100
AcDbRegAppTableRecord
  2
AVE_ENTITY_MATERIAL
 70
     0
  0
APPID
  5
EA26
330
DCE4
100
AcDbSymbolTableRecord
100
AcDbRegAppTableRecord
  2
AVE_MATERIAL
 70
     0
  0
APPID
  5
EA27
330
DCE4
100
AcDbSymbolTableRecord
100
AcDbRegAppTableRecord
  2
AVE_GLOBAL
 70
     0
  0
ENDTAB
  0
TABLE
  2
DIMSTYLE
  5
DCE5
330
0
100
AcDbSymbolTable
 70
     8
100
AcDbDimStyleTable
 71
     0
  0
DIMSTYLE
105
DD1C
330
DCE5
100
AcDbSymbolTableRecord
100
AcDbDimStyleTableRecord
  2
1-1
 70
     0
 41
2.0
 42
4.5
 43
0.0
 44
1.5
 45
0.01
 73
     0
 74
     0
 77
     1
 78
    12
140
1.8
141
0.0
146
1.25
147
1.0
179
     2
279
     2
284
    12
285
    12
286
    12
340
DD02
  0
ENDTAB
  0
TABLE
  2
BLOCK_RECORD
  5
DCDC
330
0
100
AcDbSymbolTable
 70
    24
  0
BLOCK_RECORD
  5
DCF2
102
{ACAD_XDICTIONARY
360
1586E
102
}
330
DCDC
100
AcDbSymbolTableRecord
100
AcDbBlockTableRecord
  2
*MODEL_SPACE
340
EBBF
  0
BLOCK_RECORD
  5
10777
102
{ACAD_XDICTIONARY
360
15847
102
}
330
DCDC
100
AcDbSymbolTableRecord
100
AcDbBlockTableRecord
  2
*Paper_Space
340
10778
  0
BLOCK_RECORD
  5
EA1B
330
DCDC
100
AcDbSymbolTableRecord
100
AcDbBlockTableRecord
  2
AVE_RENDER
340
0
102
{BLKREFS
331
EA1E
331
EA1F
331
EA20
331
EA21
331
EA22
331
EA23
331
EA24
331
EA25
102
}
  0
BLOCK_RECORD
  5
EA28
330
DCDC
100
AcDbSymbolTableRecord
100
AcDbBlockTableRecord
  2
AVE_GLOBAL
340
0
102
{BLKREFS
331
EA2B
102
}
  0
ENDTAB
  0
ENDSEC
  0
SECTION
  2
BLOCKS
  0
BLOCK
  5
DD38
330
DCF2
100
AcDbEntity
  8
0
100
AcDbBlockBegin
  2
*MODEL_SPACE
 70
     0
 10
0.0
 20
0.0
 30
0.0
  3
*MODEL_SPACE
  1

  0
ENDBLK
  5
DD39
330
DCF2
100
AcDbEntity
  8
0
100
AcDbBlockEnd
  0
BLOCK
  5
10779
330
10777
100
AcDbEntity
 67
     1
  8
0
100
AcDbBlockBegin
  2
*Paper_Space
 70
     0
 10
0.0
 20
0.0
 30
0.0
  3
*Paper_Space
  1

  0
ENDBLK
  5
1077A
330
10777
100
AcDbEntity
 67
     1
  8
0
100
AcDbBlockEnd
  0
BLOCK
  5
EA1C
330
EA1B
100
AcDbEntity
  8
ASHADE
100
AcDbBlockBegin
  2
AVE_RENDER
 70
     0
 10
0.0
 20
0.0
 30
0.0
  3
AVE_RENDER
  1
AVE_RENDER
  0
ENDBLK
  5
EA1D
330
EA1B
100
AcDbEntity
  8
0
100
AcDbBlockEnd
  0
BLOCK
  5
EA29
330
EA28
100
AcDbEntity
  8
ASHADE
100
AcDbBlockBegin
  2
AVE_GLOBAL
 70
     0
 10
0.0
 20
0.0
 30
0.0
  3
AVE_GLOBAL
  1
AVE_GLOBAL
  0
ENDBLK
  5
EA2A
330
EA28
100
AcDbEntity
  8
0
100
AcDbBlockEnd
  0
ENDSEC
  0
SECTION
  2
ENTITIES
  0
INSERT
  5
EA1E
330
DCF2
100
AcDbEntity
  8
ASHADE
 62
     1
100
AcDbBlockReference
  2
AVE_RENDER
 10
0.0
 20
0.0
 30
0.0
1001
AVE_RENDER
1002
{
1070
     7
1000
Pref
1070
    50
1070
    20
1070
     1
1070
     0
1000

1070
    10
1070
     1
1070
    10
1040
1.0
1070
     1
1040
0.3
1040
0.7
1040
0.0
1040
10.0
1010
-1.0
1020
-1.0
1030
-1.0
1040
0.3
1070
    49
1070
     0
1070
     0
1010
1.0
1020
1.0
1030
1.0
1040
45.0
1070
     1
1070
     0
1000
WCS
1040
0.0
1070
     0
1040
10.0
1002
}
  0
INSERT
  5
EA1F
330
DCF2
100
AcDbEntity
  8
ASHADE
 62
     3
100
AcDbBlockReference
  2
AVE_RENDER
 10
0.0
 20
0.0
 30
0.0
1001
AVE_RENDER
1002
{
1070
     0
1000
Full Opt
1070
     0
1070
     1
1070
     1
1070
     1
1070
     0
1070
     0
1070
     0
1070
     1
1070
     1
1040
0.0001
1040
0.0001
1002
}
  0
INSERT
  5
EA20
330
DCF2
100
AcDbEntity
  8
ASHADE
 62
     4
100
AcDbBlockReference
  2
AVE_RENDER
 10
0.0
 20
0.0
 30
0.0
1001
AVE_RENDER
1002
{
1070
     0
1000
Quick Opt
1070
     0
1070
     1
1070
     1
1070
     1
1070
     0
1070
     0
1070
     1
1002
}
  0
INSERT
  5
EA21
330
DCF2
100
AcDbEntity
  8
ASHADE
 62
     5
100
AcDbBlockReference
  2
AVE_RENDER
 10
0.0
 20
0.0
 30
0.0
1001
AVE_RENDER
1002
{
1070
     1
1000
Scanl Opt
1070
     2
1070
     0
1070
     2
1040
2.0
1040
4.0
1070
     0
1070
     1
1070
     0
1040
0.03
1002
}
  0
INSERT
  5
EA22
330
DCF2
100
AcDbEntity
  8
ASHADE
 62
     6
100
AcDbBlockReference
  2
AVE_RENDER
 10
0.0
 20
0.0
 30
0.0
1001
AVE_RENDER
1002
{
1070
     2
1000
Raytr Opt
1070
     2
1070
     0
1070
     2
1040
2.0
1040
4.0
1070
     0
1070
     1
1070
     1
1040
0.03
1070
     3
1040
0.03
1002
}
  0
INSERT
  5
EA23
330
DCF2
100
AcDbEntity
  8
ASHADE
 62
     7
100
AcDbBlockReference
  2
AVE_RENDER
 10
0.0
 20
0.0
 30
0.0
1001
AVE_RENDER
1002
{
1070
     0
1000
RFile Opt
1070
     1
1070
   640
1070
   480
1070
 10000
1070
     1
1070
     8
1070
     8
1070
     0
1070
     0
1070
     0
1070
     0
1070
     0
1070
     0
1070
     0
1002
}
  0
INSERT
  5
EA24
330
DCF2
100
AcDbEntity
  8
ASHADE
 62
     8
100
AcDbBlockReference
  2
AVE_RENDER
 10
0.0
 20
0.0
 30
0.0
1001
AVE_RENDER
1002
{
1070
     0
1000
Fog Opt
1070
     0
1070
     0
1040
0.0
1040
1.0
1040
0.0
1040
1.0
1010
0.5
1020
0.5
1030
0.5
1002
}
  0
INSERT
  5
EA25
330
DCF2
100
AcDbEntity
  8
ASHADE
 62
     9
100
AcDbBlockReference
  2
AVE_RENDER
 10
0.0
 20
0.0
 30
0.0
1001
AVE_RENDER
1002
{
1070
     0
1000
BG Opt
1070
     0
1070
     0
1010
1.0
1020
1.0
1030
1.0
1010
1.0
1020
0.0
1030
0.0
1010
0.0
1020
1.0
1030
0.0
1010
0.0
1020
0.0
1030
1.0
1040
0.5
1040
0.33
1040
0.0
1000

1070
     1
1000

1070
     1
1070
     1
1040
1.0
1040
1.0
1040
0.0
1040
0.0
1070
     0
1002
}
  0
INSERT
  5
EA2B
330
DCF2
100
AcDbEntity
  8
ASHADE
 62
     1
100
AcDbBlockReference
  2
AVE_GLOBAL
 10
0.0
 20
0.0
 30
0.0
1001
AVE_MATERIAL
1002
{
1000
*GLOBAL*
1000
1
1000
Global finish.
1002
{
1002
}
1002
{
1070
    63
1002
{
1002
{
1010
-1.0
1020
-1.0
1030
-1.0
1002
}
1040
0.1000000014901161
1000

1040
0.0
1002
{
1002
}
1040
0.0
1002
{
1002
}
1040
0.0
1002
}
1002
{
1002
{
1010
-1.0
1020
-1.0
1030
-1.0
1002
}
1040
0.6999999880790711
1000

1040
0.0
1002
{
1002
}
1040
0.0
1002
{
1002
}
1040
0.0
1002
}
1002
{
1002
{
1010
-1.0
1020
-1.0
1030
-1.0
1002
}
1040
0.2000000029802322
1000

1040
0.0
1002
{
1002
}
1040
0.0
1002
{
1002
}
1040
0.0
1002
}
1002
{
1070
     0
1002
{
1070
     1
1002
{
1040
1.0
1040
1.0
1000

1040
0.0
1002
{
1002
}
1040
0.0
1002
{
1002
}
1040
0.0
1002
}
1002
}
1040
1.0
1040
0.0
1040
0.0
1002
}
1002
{
1040
1.0
1040
1.0
1000

1040
0.0
1002
{
1002
}
1040
0.0
1002
{
1002
}
1040
0.0
1002
}
1002
{
1040
0.5
1040
1.0
1000

1040
0.0
1002
{
1002
}
1040
0.0
1002
{
1002
}
1040
0.0
1002
}
1002
{
1070
     0
1040
0.0
1002
{
1002
}
1040
1.0
1002
{
1002
}
1040
0.0
1002
}
1002
{
1040
0.0
1002
{
1002
{
1010
0.0
1020
0.0
1030
0.0
1002
}
1040
1.0
1000

1040
0.0
1002
{
1002
}
1040
0.0
1002
{
1002
}
1040
0.0
1002
}
1002
}
1002
{
1002
{
1070
     1
1002
{
1040
0.0
1040
1.0
1000

1040
0.0
1002
{
1002
}
1040
0.0
1002
{
1002
}
1040
0.0
1002
}
1002
}
1040
0.0
1002
{
1002
}
1010
1.0
1020
0.0
1030
0.0
1010
0.0
1020
1.0
1030
0.0
1010
0.0
1020
0.0
1030
1.0
1070
     0
1002
}
1002
{
1002
{
1040
1.0
1040
1.0
1002
{
1070
     1
1002
{
1040
1.0
1040
1.0
1000

1040
0.0
1002
{
1002
}
1040
0.0
1002
{
1002
}
1040
0.0
1002
}
1002
}
1002
}
1070
     0
1040
0.0
1002
{
1002
}
1002
}
1002
{
1002
}
1002
}
1002
{
1071
        3
1070
     3
1070
     0
1002
{
1070
     2
1070
     0
1070
     0
1040
0.0
1002
}
1070
     0
1070
     2
1002
{
1002
}
1002
}
1002
{
1040
8030.0
1040
190.3000030517578
1040
0.3050000071525574
1040
228.0
1040
545.0
1040
14.0
1040
17.39999961853027
1040
0.4560000002384186
1002
}
1002
}
  0
LINE
  5
139DF
330
DCF2
100
AcDbEntity
  8
Ancontension
  6
HIDDEN1_01
100
AcDbLine
 10
1967.006179063957
 20
247.7138492944623
 30
0.0
 11
1967.006179063964
 21
260.2138492944624
 31
0.0
  0
LINE
  5
139E0
330
DCF2
100
AcDbEntity
  8
Ancontension
100
AcDbLine
 10
1979.006179063958
 20
242.5109240409749
 30
0.0
 11
1979.006179063958
 21
265.41677454795
 31
0.0
  0
LINE
  5
139E1
330
DCF2
100
AcDbEntity
  8
Ancontension
100
AcDbLine
 10
1952.006179063958
 20
246.0033403426526
 30
0.0
 11
1952.006179063958
 21
261.9243582462723
 31
0.0
  0
ELLIPSE
  5
139E2
330
DCF2
100
AcDbEntity
  8
Ancontension
100
AcDbEllipse
 10
1962.875838425371
 20
247.0299765520728
 30
0.0
 11
1.5
 21
0.0
 31
0.0
210
0.0
220
0.0
230
1.0
 40
0.7071067811865534
 41
0.0
 42
6.283185307179585
  0
LINE
  5
139E3
330
DCF2
100
AcDbEntity
  8
Ancontension
  6
HIDDEN1_01
100
AcDbLine
 10
1967.006179063957
 20
247.7138492944623
 30
0.0
 11
1952.506179063958
 21
247.7138492944625
 31
0.0
  0
LINE
  5
139E4
330
DCF2
100
AcDbEntity
  8
Ancontension
100
AcDbLine
 10
1952.442039028902
 20
245.5074713519876
 30
0.0
 11
1978.442039028902
 21
242.144403802224
 31
0.0
  0
ARC
  5
139E5
330
DCF2
100
AcDbEntity
  8
Ancontension
100
AcDbCircle
 10
1952.506179063957
 20
246.0033403426526
 30
0.0
 40
0.5
100
AcDbArc
 50
180.0
 51
262.6297845658459
  0
LINE
  5
139E6
330
DCF2
100
AcDbEntity
  8
Ancontension
  6
HIDDEN1_01
100
AcDbLine
 10
1952.506179063958
 20
247.7138492944625
 30
0.0
 11
1952.006179063958
 21
247.2138492944625
 31
0.0
  0
LINE
  5
139E7
330
DCF2
100
AcDbEntity
  8
Ancontension
  6
HIDDEN1_01
100
AcDbLine
 10
1978.506179063958
 20
247.9638492944626
 30
0.0
 11
1967.006179063957
 21
247.9638492944626
 31
0.0
  0
ARC
  5
139E8
330
DCF2
100
AcDbEntity
  8
Ancontension
100
AcDbCircle
 10
1978.506179063958
 20
242.6402727928889
 30
0.0
 40
0.5
100
AcDbArc
 50
262.6297845658459
 51
0.0
  0
ELLIPSE
  5
139E9
330
DCF2
100
AcDbEntity
  8
Ancontension
100
AcDbEllipse
 10
1962.875838425371
 20
260.8977220369546
 30
0.0
 11
1.5
 21
0.0
 31
0.0
210
0.0
220
0.0
230
-1.0
 40
0.7071067811865534
 41
0.0
 42
6.283185307179585
  0
LINE
  5
139EA
330
DCF2
100
AcDbEntity
  8
Ancontension
  6
HIDDEN1_01
100
AcDbLine
 10
1967.006179063958
 20
260.2138492944624
 30
0.0
 11
1952.506179063958
 21
260.2138492944625
 31
0.0
  0
LINE
  5
139EB
330
DCF2
100
AcDbEntity
  8
Ancontension
100
AcDbLine
 10
1952.442039028903
 20
262.4202272369373
 30
0.0
 11
1978.442039028903
 21
265.7832947867011
 31
0.0
  0
ARC
  5
139EC
330
DCF2
100
AcDbEntity
  8
Ancontension
100
AcDbCircle
 10
1952.506179063958
 20
261.9243582462723
 30
0.0
 40
0.5
100
AcDbArc
 50
97.37021543415394
 51
180.0
  0
LINE
  5
139ED
330
DCF2
100
AcDbEntity
  8
Ancontension
  6
HIDDEN1_01
100
AcDbLine
 10
1952.506179063958
 20
260.2138492944625
 30
0.0
 11
1952.006179063958
 21
260.7138492944625
 31
0.0
  0
LINE
  5
139EE
330
DCF2
100
AcDbEntity
  8
Ancontension
  6
HIDDEN1_01
100
AcDbLine
 10
1978.506179063958
 20
259.9638492944626
 30
0.0
 11
1967.006179063957
 21
259.9638492944626
 31
0.0
  0
ARC
  5
139EF
330
DCF2
100
AcDbEntity
  8
Ancontension
100
AcDbCircle
 10
1978.506179063958
 20
265.2874257960362
 30
0.0
 40
0.5
100
AcDbArc
 50
0.0
 51
97.37021543415394
  0
LINE
  5
139F0
330
DCF2
100
AcDbEntity
  8
Ancontension
100
AcDbLine
 10
2062.006179063958
 20
246.0033403426526
 30
0.0
 11
2062.006179063958
 21
261.9243582462723
 31
0.0
  0
LINE
  5
139F1
330
DCF2
100
AcDbEntity
  8
Ancontension
  6
HIDDEN1_01
100
AcDbLine
 10
2047.006179063958
 20
247.7138492944623
 30
0.0
 11
2047.006179063953
 21
260.2138492944624
 31
0.0
  0
LINE
  5
139F2
330
DCF2
100
AcDbEntity
  8
Ancontension
100
AcDbLine
 10
2035.006179063958
 20
242.5109240409749
 30
0.0
 11
2035.006179063958
 21
265.41677454795
 31
0.0
  0
LINE
  5
139F3
330
DCF2
100
AcDbEntity
  8
Ancontension
100
AcDbLine
 10
2035.006179063958
 20
242.5109240409749
 30
0.0
 11
2035.006179063958
 21
265.41677454795
 31
0.0
  0
LINE
  5
139F4
330
DCF2
100
AcDbEntity
  8
Ancontension
100
AcDbLine
 10
1979.006179063958
 20
242.5109240409749
 30
0.0
 11
1979.006179063958
 21
265.41677454795
 31
0.0
  0
ARC
  5
139F5
330
DCF2
100
AcDbEntity
  8
Ancontension
100
AcDbCircle
 10
2028.698774519229
 20
266.4638492944626
 30
0.0
 40
25.0
100
AcDbArc
 50
270.0
 51
277.3702154341539
  0
LINE
  5
139F6
330
DCF2
100
AcDbEntity
  8
Ancontension
  6
HIDDEN1_01
100
AcDbLine
 10
2010.006179063958
 20
247.9638492944625
 30
0.0
 11
2035.006179063958
 21
247.9638492944626
 31
0.0
  0
LINE
  5
139F7
330
DCF2
100
AcDbEntity
  8
Ancontension
  6
HIDDEN1_01
100
AcDbLine
 10
2004.006179063958
 20
248.8638492944624
 30
0.0
 11
2010.006179063958
 21
248.8638492944624
 31
0.0
  0
LINE
  5
139F8
330
DCF2
100
AcDbEntity
  8
Ancontension
100
AcDbLine
 10
1985.31358360869
 20
241.463849294462
 30
0.0
 11
2028.69877451923
 21
241.4638492944626
 31
0.0
  0
LINE
  5
139F9
330
DCF2
100
AcDbEntity
  8
Ancontension
  6
HIDDEN1_01
100
AcDbLine
 10
1979.006179063958
 20
247.9638492944626
 30
0.0
 11
2004.006179063958
 21
247.9638492944625
 31
0.0
  0
ARC
  5
139FA
330
DCF2
100
AcDbEntity
  8
Ancontension
100
AcDbCircle
 10
1979.506179063958
 20
242.5109240409749
 30
0.0
 40
0.5
100
AcDbArc
 50
180.0
 51
262.6297845658458
  0
ARC
  5
139FB
330
DCF2
100
AcDbEntity
  8
Ancontension
100
AcDbCircle
 10
1985.313583608689
 20
266.463849294462
 30
0.0
 40
25.0
100
AcDbArc
 50
262.6297845658458
 51
270.0
  0
LINE
  5
139FC
330
DCF2
100
AcDbEntity
  8
Ancontension
100
AcDbLine
 10
1979.442039028903
 20
242.0150550503101
 30
0.0
 11
1982.10658185592
 21
241.6703997612136
 31
0.0
  0
LINE
  5
139FD
330
DCF2
100
AcDbEntity
  8
Ancontension
  6
HIDDEN1_01
100
AcDbLine
 10
2004.006179063958
 20
247.9638492944626
 30
0.0
 11
2004.006179063958
 21
248.8638492944624
 31
0.0
  0
LINE
  5
139FE
330
DCF2
100
AcDbEntity
  8
Ancontension
  6
HIDDEN1_01
100
AcDbLine
 10
2010.006179063958
 20
247.9638492944626
 30
0.0
 11
2010.006179063958
 21
248.8638492944624
 31
0.0
  0
LINE
  5
139FF
330
DCF2
100
AcDbEntity
  8
Ancontension
  6
HIDDEN1_01
100
AcDbLine
 10
2035.506179063958
 20
247.9638492944626
 30
0.0
 11
2047.006179063958
 21
247.9638492944626
 31
0.0
  0
LINE
  5
13A00
330
DCF2
100
AcDbEntity
  8
Ancontension
100
AcDbLine
 10
2061.570319099013
 20
245.5074713519876
 30
0.0
 11
2035.570319099013
 21
242.144403802224
 31
0.0
  0
ARC
  5
13A01
330
DCF2
100
AcDbEntity
  8
Ancontension
100
AcDbCircle
 10
2034.506179063958
 20
242.5109240409749
 30
0.0
 40
0.5
100
AcDbArc
 50
277.3702154341539
 51
0.0
  0
LINE
  5
13A02
330
DCF2
100
AcDbEntity
  8
Ancontension
100
AcDbLine
 10
2034.570319099013
 20
242.0150550503101
 30
0.0
 11
2031.905776271997
 21
241.670399761214
 31
0.0
  0
ARC
  5
13A03
330
DCF2
100
AcDbEntity
  8
Ancontension
100
AcDbCircle
 10
2035.506179063958
 20
242.6402727928889
 30
0.0
 40
0.5
100
AcDbArc
 50
180.0
 51
277.3702154341539
  0
LINE
  5
13A04
330
DCF2
100
AcDbEntity
  8
Ancontension
  6
HIDDEN1_01
100
AcDbLine
 10
2047.006179063958
 20
247.7138492944623
 30
0.0
 11
2061.506179063957
 21
247.7138492944625
 31
0.0
  0
ELLIPSE
  5
13A05
330
DCF2
100
AcDbEntity
  8
Ancontension
100
AcDbEllipse
 10
2051.136519702545
 20
247.0299765520215
 30
0.0
 11
-1.5
 21
0.0
 31
0.0
210
0.0
220
0.0
230
-1.0
 40
0.7071067811865534
 41
0.0
 42
6.283185307179585
  0
LINE
  5
13A06
330
DCF2
100
AcDbEntity
  8
Ancontension
  6
HIDDEN1_01
100
AcDbLine
 10
2061.506179063957
 20
247.7138492944625
 30
0.0
 11
2062.006179063958
 21
247.2138492944625
 31
0.0
  0
ARC
  5
13A07
330
DCF2
100
AcDbEntity
  8
Ancontension
100
AcDbCircle
 10
2061.506179063957
 20
246.0033403426526
 30
0.0
 40
0.5
100
AcDbArc
 50
277.3702154341539
 51
0.0
  0
ARC
  5
13A08
330
DCF2
100
AcDbEntity
  8
Ancontension
100
AcDbCircle
 10
2028.69877451923
 20
241.4638492944625
 30
0.0
 40
25.0
100
AcDbArc
 50
82.62978456584587
 51
90.0
  0
LINE
  5
13A09
330
DCF2
100
AcDbEntity
  8
Ancontension
  6
HIDDEN1_01
100
AcDbLine
 10
2010.006179063958
 20
259.9638492944627
 30
0.0
 11
2035.006179063958
 21
259.9638492944627
 31
0.0
  0
LINE
  5
13A0A
330
DCF2
100
AcDbEntity
  8
Ancontension
100
AcDbLine
 10
1985.313583608682
 20
266.463849294462
 30
0.0
 11
2028.698774519229
 21
266.4638492944625
 31
0.0
  0
LINE
  5
13A0B
330
DCF2
100
AcDbEntity
  8
Ancontension
  6
HIDDEN1_01
100
AcDbLine
 10
2004.006179063958
 20
259.0638492944622
 30
0.0
 11
2010.006179063958
 21
259.0638492944624
 31
0.0
  0
LINE
  5
13A0C
330
DCF2
100
AcDbEntity
  8
Ancontension
  6
HIDDEN1_01
100
AcDbLine
 10
1979.006179063958
 20
259.9638492944627
 30
0.0
 11
2004.006179063958
 21
259.9638492944627
 31
0.0
  0
LINE
  5
13A0D
330
DCF2
100
AcDbEntity
  8
Ancontension
  6
HIDDEN1_01
100
AcDbLine
 10
2004.006179063958
 20
259.0638492944622
 30
0.0
 11
2004.006179063958
 21
259.9638492944627
 31
0.0
  0
ARC
  5
13A0E
330
DCF2
100
AcDbEntity
  8
Ancontension
100
AcDbCircle
 10
1979.506179063958
 20
265.41677454795
 30
0.0
 40
0.5
100
AcDbArc
 50
97.37021543415416
 51
180.0
  0
ARC
  5
13A0F
330
DCF2
100
AcDbEntity
  8
Ancontension
100
AcDbCircle
 10
1985.313583608682
 20
241.463849294462
 30
0.0
 40
25.0
100
AcDbArc
 50
90.0
 51
97.37021543415416
  0
LINE
  5
13A10
330
DCF2
100
AcDbEntity
  8
Ancontension
100
AcDbLine
 10
1979.442039028903
 20
265.9126435386151
 30
0.0
 11
1982.106581855913
 21
266.2572988277104
 31
0.0
  0
LINE
  5
13A11
330
DCF2
100
AcDbEntity
  8
Ancontension
  6
HIDDEN1_01
100
AcDbLine
 10
2010.006179063958
 20
259.0638492944624
 30
0.0
 11
2010.006179063958
 21
259.9638492944627
 31
0.0
  0
LINE
  5
13A12
330
DCF2
100
AcDbEntity
  8
Ancontension
  6
HIDDEN1_01
100
AcDbLine
 10
2035.506179063958
 20
259.9638492944626
 30
0.0
 11
2047.006179063958
 21
259.9638492944626
 31
0.0
  0
LINE
  5
13A13
330
DCF2
100
AcDbEntity
  8
Ancontension
100
AcDbLine
 10
2061.570319099013
 20
262.4202272369373
 30
0.0
 11
2035.570319099013
 21
265.7832947867011
 31
0.0
  0
ARC
  5
13A14
330
DCF2
100
AcDbEntity
  8
Ancontension
100
AcDbCircle
 10
2034.506179063958
 20
265.41677454795
 30
0.0
 40
0.5
100
AcDbArc
 50
0.0
 51
82.62978456584606
  0
LINE
  5
13A15
330
DCF2
100
AcDbEntity
  8
Ancontension
100
AcDbLine
 10
2034.570319099012
 20
265.9126435386151
 30
0.0
 11
2031.905776271999
 21
266.2572988277108
 31
0.0
  0
ARC
  5
13A16
330
DCF2
100
AcDbEntity
  8
Ancontension
100
AcDbCircle
 10
2035.506179063958
 20
265.2874257960362
 30
0.0
 40
0.5
100
AcDbArc
 50
82.62978456584606
 51
180.0
  0
LINE
  5
13A17
330
DCF2
100
AcDbEntity
  8
Ancontension
  6
HIDDEN1_01
100
AcDbLine
 10
2047.006179063958
 20
260.2138492944624
 30
0.0
 11
2061.506179063957
 21
260.2138492944625
 31
0.0
  0
ELLIPSE
  5
13A18
330
DCF2
100
AcDbEntity
  8
Ancontension
100
AcDbEllipse
 10
2051.136519702545
 20
260.8977220369033
 30
0.0
 11
-1.5
 21
0.0
 31
0.0
210
0.0
220
0.0
230
1.0
 40
0.7071067811865534
 41
0.0
 42
6.283185307179585
  0
LINE
  5
13A19
330
DCF2
100
AcDbEntity
  8
Ancontension
  6
HIDDEN1_01
100
AcDbLine
 10
2061.506179063957
 20
260.2138492944625
 30
0.0
 11
2062.006179063958
 21
260.7138492944625
 31
0.0
  0
ARC
  5
13A1A
330
DCF2
100
AcDbEntity
  8
Ancontension
100
AcDbCircle
 10
2061.506179063957
 20
261.9243582462723
 30
0.0
 40
0.5
100
AcDbArc
 50
0.0
 51
82.62978456584606
  0
TEXT
  5
13A1B
330
DCF2
100
AcDbEntity
  8
Ancontension
100
AcDbText
 10
1998.460436556162
 20
220.6136681084823
 30
0.0
 40
10.0
  1
12
  7
ROMANS
100
AcDbText
  0
VIEWPORT
  5
1077E
330
10777
100
AcDbEntity
 67
     1
  8
0
100
AcDbViewport
 10
5.649584071842704
 20
3.9337497996533
 30
0.0
 40
13.59960971915711
 41
8.742606248029574
 68
     1
 69
     1
 12
5.649584071842704
 22
3.9337497996533
 13
0.0
 23
0.0
 14
10.0
 24
10.0
 15
10.0
 25
10.0
 16
0.0
 26
0.0
 36
1.0
 17
0.0
 27
0.0
 37
0.0
 42
50.0
 43
0.0
 44
0.0
 45
8.742606248029574
 50
0.0
 51
0.0
 72
   100
 90
    32800
  1

281
     0
 71
     1
 74
     0
110
0.0
120
0.0
130
0.0
111
1.0
121
0.0
131
0.0
112
0.0
122
1.0
132
0.0
 79
     0
146
0.0
  0
VIEWPORT
  5
10780
330
10777
100
AcDbEntity
 67
     1
  8
DEFPOINTS
100
AcDbViewport
 10
5.649583752699723
 20
3.933750081250048
 30
0.0
 40
9.03933400431956
 41
6.294000130000076
 68
     2
 69
     2
 12
387.5355434982203
 22
270.7623806840798
 13
0.0
 23
0.0
 14
0.5
 24
0.5
 15
0.0
 25
0.0
 16
0.0
 26
0.0
 36
1.0
 17
0.0
 27
0.0
 37
0.0
 42
50.0
 43
0.0
 44
0.0
 45
90.26230401032616
 50
0.0
 51
0.0
 72
   100
 90
    32808
  1

281
     0
 71
     1
 74
     0
110
0.0
120
0.0
130
0.0
111
1.0
121
0.0
131
0.0
112
0.0
122
1.0
132
0.0
 79
     0
146
0.0
  0
ENDSEC
  0
SECTION
  2
OBJECTS
  0
DICTIONARY
  5
DCE7
330
0
100
AcDbDictionary
281
     1
  3
ACAD_GROUP
350
DCE8
  3
ACAD_LAYOUT
350
EBBD
  3
ACAD_MLINESTYLE
350
DCF5
  3
ACAD_PLOTSETTINGS
350
EBBE
  3
ACAD_PLOTSTYLENAME
350
EBBB
  3
AcadDim
350
EC1C
  3
ACDBHEADERROUNDTRIPXREC
350
1594F
  3
ACDBVARIABLEDICTIONARY
350
DD3A
  3
AVE_ACITABLE
350
EA5F
  0
DICTIONARY
  5
1586E
330
DCF2
100
AcDbDictionary
280
     1
281
     1
  3
ACAD_LAYOUTSELFREF
360
1586F
  0
DICTIONARY
  5
15847
330
10777
100
AcDbDictionary
280
     1
281
     1
  3
ACAD_LAYOUTSELFREF
360
1587C
  0
DICTIONARY
  5
DCE8
102
{ACAD_REACTORS
330
DCE7
102
}
330
DCE7
100
AcDbDictionary
281
     1
  0
DICTIONARY
  5
EBBD
102
{ACAD_REACTORS
330
DCE7
102
}
330
DCE7
100
AcDbDictionary
281
     1
  3
Layout1
350
10778
  3
Model
350
EBBF
  0
DICTIONARY
  5
DCF5
102
{ACAD_REACTORS
330
DCE7
102
}
330
DCE7
100
AcDbDictionary
281
     1
  3
STANDARD
350
DCF6
  0
DICTIONARY
  5
EBBE
102
{ACAD_REACTORS
330
DCE7
102
}
330
DCE7
100
AcDbDictionary
281
     1
  0
ACDBDICTIONARYWDFLT
  5
EBBB
102
{ACAD_REACTORS
330
DCE7
102
}
330
DCE7
100
AcDbDictionary
281
     1
  3
Normal
350
EBBC
100
AcDbDictionaryWithDefault
340
EBBC
  0
XRECORD
  5
EC1C
102
{ACAD_REACTORS
330
DCE7
102
}
330
DCE7
100
AcDbXrecord
280
     1
 90
   990106
  3

 60
     0
 61
     0
 62
     1
 63
     3
 64
     0
 65
     0
 66
     0
 67
     3
 68
     1
 69
     0
 70
     0
 71
     0
 72
     0
 40
0.0
170
     0
340
0
  0
DICTIONARY
  5
1594F
102
{ACAD_REACTORS
330
DCE7
102
}
330
DCE7
100
AcDbDictionary
281
     1
  3
CEPSNTYPE
350
15959
  3
DIMSTYLEDATA
350
1595D
  3
FINGERPRINTGUID
350
1595A
  3
HYPERLINKBASE
350
15952
  3
INSUNITS
350
15958
  3
LAYOUTDICT
350
15954
  3
LWETCUNION
350
15957
  3
PLOTSETDICT
350
15955
  3
PLOTSTYLNAMDICT
350
15956
  3
PSVPSCALE
350
1595C
  3
PUCSBASE
350
15960
  3
PUCSORGBACK
350
15966
  3
PUCSORGBOTTOM
350
15962
  3
PUCSORGFRONT
350
15965
  3
PUCSORGLEFT
350
15963
  3
PUCSORGRIGHT
350
15964
  3
PUCSORGTOP
350
15961
  3
PUCSORTHOREF
350
1595E
  3
PUCSORTHOVIEW
350
1595F
  3
STYLESHEET
350
15953
  3
TSTACKALIGN
350
15950
  3
TSTACKSIZE
350
15951
  3
UCSBASE
350
15969
  3
UCSORGBACK
350
1596F
  3
UCSORGBOTTOM
350
1596B
  3
UCSORGFRONT
350
1596E
  3
UCSORGLEFT
350
1596C
  3
UCSORGRIGHT
350
1596D
  3
UCSORGTOP
350
1596A
  3
UCSORTHOREF
350
15967
  3
UCSORTHOVIEW
350
15968
  3
VERSIONGUID
350
1595B
  0
DICTIONARY
  5
DD3A
102
{ACAD_REACTORS
330
DCE7
102
}
330
DCE7
100
AcDbDictionary
281
     1
  3
DIMADEC
350
DD3B
  3
DIMASSOC
350
EC17
  3
SORTENTS
350
E79F
  0
DICTIONARY
  5
EA5F
102
{ACAD_REACTORS
330
DCE7
102
}
330
DCE7
100
AcDbDictionary
281
     1
  0
XRECORD
  5
1586F
102
{ACAD_REACTORS
330
1586E
102
}
330
1586E
100
AcDbXrecord
280
     1
340
DCF2
  0
XRECORD
  5
1587C
102
{ACAD_REACTORS
330
15847
102
}
330
15847
100
AcDbXrecord
280
     1
340
10777
  0
LAYOUT
  5
10778
102
{ACAD_REACTORS
330
EBBD
102
}
330
EBBD
100
AcDbPlotSettings
  1

  2
\\Zeus\Xerox-Export
  4
A4
  6

 40
5.027083396911621
 41
5.027085304260253
 42
5.027069091796875
 43
5.027069091796875
 44
209.8886566162109
 45
297.0530090332031
 46
0.0
 47
0.0
 48
0.0
 49
0.0
140
0.0
141
0.0
142
1.0
143
1.0
 70
   688
 72
     0
 73
     1
 74
     5
  7

 75
    16
147
1.0
148
0.0
149
0.0
100
AcDbLayout
  1
Layout1
 70
     1
 71
     1
 10
-0.1979161059762549
 20
-0.1979166691697489
 11
11.49708424966165
 21
8.065416268476351
 12
0.0
 22
0.0
 32
0.0
 14
1.129916750539944
 24
0.78675001625001
 34
0.0
 15
10.1692507548595
 25
7.080750146250085
 35
0.0
146
0.0
 13
0.0
 23
0.0
 33
0.0
 16
1.0
 26
0.0
 36
0.0
 17
0.0
 27
1.0
 37
0.0
 76
     0
330
10777
331
1077E
  0
LAYOUT
  5
EBBF
102
{ACAD_REACTORS
330
EBBD
102
}
330
EBBD
100
AcDbPlotSettings
  1

  2
Ancon 1 A4
  4

  6

 40
0.0
 41
0.0
 42
0.0
 43
0.0
 44
0.0
 45
0.0
 46
0.0
 47
0.0
 48
0.0
 49
0.0
140
0.0
141
0.0
142
1.0
143
1.0
 70
  1712
 72
     0
 73
     0
 74
     0
  7

 75
     0
147
1.0
148
0.0
149
0.0
100
AcDbLayout
  1
Model
 70
     1
 71
     0
 10
0.0
 20
0.0
 11
12.0
 21
9.0
 12
0.0
 22
0.0
 32
0.0
 14
0.0
 24
0.0
 34
0.0
 15
0.0
 25
0.0
 35
0.0
146
0.0
 13
0.0
 23
0.0
 33
0.0
 16
1.0
 26
0.0
 36
0.0
 17
0.0
 27
1.0
 37
0.0
 76
     0
330
DCF2
  0
MLINESTYLE
  5
DCF6
102
{ACAD_REACTORS
330
DCF5
102
}
330
DCF5
100
AcDbMlineStyle
  2
STANDARD
 70
     0
  3

 62
   256
 51
90.0
 52
90.0
 71
     2
 49
0.5
 62
   256
  6
BYLAYER
 49
-0.5
 62
   256
  6
BYLAYER
  0
ACDBPLACEHOLDER
  5
EBBC
102
{ACAD_REACTORS
330
EBBB
102
}
330
EBBB
  0
XRECORD
  5
15959
102
{ACAD_REACTORS
330
1594F
102
}
330
1594F
100
AcDbXrecord
280
     1
 90
        0
  0
XRECORD
  5
1595D
102
{ACAD_REACTORS
330
1594F
102
}
330
1594F
100
AcDbXrecord
280
     1
1000
DSTYLE
1002
{
1070
   179
 70
     2
1070
   279
 70
     2
1002
}
  0
XRECORD
  5
1595A
102
{ACAD_REACTORS
330
1594F
102
}
330
1594F
100
AcDbXrecord
280
     1
  1
{B88EE4EA-09A3-11D6-AAD2-00C04F189418}
  0
XRECORD
  5
15952
102
{ACAD_REACTORS
330
1594F
102
}
330
1594F
100
AcDbXrecord
280
     1
  1

  0
XRECORD
  5
15958
102
{ACAD_REACTORS
330
1594F
102
}
330
1594F
100
AcDbXrecord
280
     1
 90
        0
  0
XRECORD
  5
15954
102
{ACAD_REACTORS
330
1594F
102
}
330
1594F
100
AcDbXrecord
280
     1
340
EBBD
  0
XRECORD
  5
15957
102
{ACAD_REACTORS
330
1594F
102
}
330
1594F
100
AcDbXrecord
280
     1
 90
    10781
  0
XRECORD
  5
15955
102
{ACAD_REACTORS
330
1594F
102
}
330
1594F
100
AcDbXrecord
280
     1
340
EBBE
  0
XRECORD
  5
15956
102
{ACAD_REACTORS
330
1594F
102
}
330
1594F
100
AcDbXrecord
280
     1
340
EBBB
  0
XRECORD
  5
1595C
102
{ACAD_REACTORS
330
1594F
102
}
330
1594F
100
AcDbXrecord
280
     1
 40
0.0
  0
XRECORD
  5
15960
102
{ACAD_REACTORS
330
1594F
102
}
330
1594F
100
AcDbXrecord
280
     1
340
0
  0
XRECORD
  5
15966
102
{ACAD_REACTORS
330
1594F
102
}
330
1594F
100
AcDbXrecord
280
     1
 10
0.0
 20
0.0
 30
0.0
  0
XRECORD
  5
15962
102
{ACAD_REACTORS
330
1594F
102
}
330
1594F
100
AcDbXrecord
280
     1
 10
0.0
 20
0.0
 30
0.0
  0
XRECORD
  5
15965
102
{ACAD_REACTORS
330
1594F
102
}
330
1594F
100
AcDbXrecord
280
     1
 10
0.0
 20
0.0
 30
0.0
  0
XRECORD
  5
15963
102
{ACAD_REACTORS
330
1594F
102
}
330
1594F
100
AcDbXrecord
280
     1
 10
0.0
 20
0.0
 30
0.0
  0
XRECORD
  5
15964
102
{ACAD_REACTORS
330
1594F
102
}
330
1594F
100
AcDbXrecord
280
     1
 10
0.0
 20
0.0
 30
0.0
  0
XRECORD
  5
15961
102
{ACAD_REACTORS
330
1594F
102
}
330
1594F
100
AcDbXrecord
280
     1
 10
0.0
 20
0.0
 30
0.0
  0
XRECORD
  5
1595E
102
{ACAD_REACTORS
330
1594F
102
}
330
1594F
100
AcDbXrecord
280
     1
340
0
  0
XRECORD
  5
1595F
102
{ACAD_REACTORS
330
1594F
102
}
330
1594F
100
AcDbXrecord
280
     1
 70
     0
  0
XRECORD
  5
15953
102
{ACAD_REACTORS
330
1594F
102
}
330
1594F
100
AcDbXrecord
280
     1
  1

  0
XRECORD
  5
15950
102
{ACAD_REACTORS
330
1594F
102
}
330
1594F
100
AcDbXrecord
280
     1
 90
        1
  0
XRECORD
  5
15951
102
{ACAD_REACTORS
330
1594F
102
}
330
1594F
100
AcDbXrecord
280
     1
 90
       70
  0
XRECORD
  5
15969
102
{ACAD_REACTORS
330
1594F
102
}
330
1594F
100
AcDbXrecord
280
     1
340
0
  0
XRECORD
  5
1596F
102
{ACAD_REACTORS
330
1594F
102
}
330
1594F
100
AcDbXrecord
280
     1
 10
0.0
 20
0.0
 30
0.0
  0
XRECORD
  5
1596B
102
{ACAD_REACTORS
330
1594F
102
}
330
1594F
100
AcDbXrecord
280
     1
 10
0.0
 20
0.0
 30
0.0
  0
XRECORD
  5
1596E
102
{ACAD_REACTORS
330
1594F
102
}
330
1594F
100
AcDbXrecord
280
     1
 10
0.0
 20
0.0
 30
0.0
  0
XRECORD
  5
1596C
102
{ACAD_REACTORS
330
1594F
102
}
330
1594F
100
AcDbXrecord
280
     1
 10
0.0
 20
0.0
 30
0.0
  0
XRECORD
  5
1596D
102
{ACAD_REACTORS
330
1594F
102
}
330
1594F
100
AcDbXrecord
280
     1
 10
0.0
 20
0.0
 30
0.0
  0
XRECORD
  5
1596A
102
{ACAD_REACTORS
330
1594F
102
}
330
1594F
100
AcDbXrecord
280
     1
 10
0.0
 20
0.0
 30
0.0
  0
XRECORD
  5
15967
102
{ACAD_REACTORS
330
1594F
102
}
330
1594F
100
AcDbXrecord
280
     1
340
0
  0
XRECORD
  5
15968
102
{ACAD_REACTORS
330
1594F
102
}
330
1594F
100
AcDbXrecord
280
     1
 70
     0
  0
XRECORD
  5
1595B
102
{ACAD_REACTORS
330
1594F
102
}
330
1594F
100
AcDbXrecord
280
     1
  1
{33823823-5121-4809-B0BD-94A7E0382440}
  0
DICTIONARYVAR
  5
DD3B
102
{ACAD_REACTORS
330
DD3A
102
}
330
DD3A
100
DictionaryVariables
280
     0
  1
0
  0
DICTIONARYVAR
  5
EC17
102
{ACAD_REACTORS
330
DD3A
102
}
330
DD3A
100
DictionaryVariables
280
     0
  1
1
  0
DICTIONARYVAR
  5
E79F
102
{ACAD_REACTORS
330
DD3A
102
}
330
DD3A
100
DictionaryVariables
280
     0
  1
96
  0
ENDSEC
  0
EOF
