  0
SECTION
  2
HEADER
  9
$ACADVER
  1
AC1015
  9
$ACADMAINTVER
 70
    10
  9
$DWGCODEPAGE
  3
ANSI_1252
  9
$INSBASE
 10
0.0
 20
0.0
 30
0.0
  9
$EXTMIN
 10
1660.879036755594
 20
-556.7044801350817
 30
0.0
  9
$EXTMAX
 10
3478.703753245732
 20
349.0905767063456
 30
0.0
  9
$LIMMIN
 10
0.0
 20
0.0
  9
$LIMMAX
 10
12.0
 20
9.0
  9
$ORTHOMODE
 70
     0
  9
$REGENMODE
 70
     1
  9
$FILLMODE
 70
     1
  9
$QTEXTMODE
 70
     0
  9
$MIRRTEXT
 70
     0
  9
$LTSCALE
 40
1.0
  9
$ATTMODE
 70
     1
  9
$TEXTSIZE
 40
40.0
  9
$TRACEWID
 40
0.05
  9
$TEXTSTYLE
  7
ROMANS
  9
$CLAYER
  8
DIMS
  9
$CELTYPE
  6
BYLAYER
  9
$CECOLOR
 62
   256
  9
$CELTSCALE
 40
1.0
  9
$DISPSILH
 70
     0
  9
$DIMSCALE
 40
1.0
  9
$DIMASZ
 40
2.0
  9
$DIMEXO
 40
4.5
  9
$DIMDLI
 40
0.0
  9
$DIMRND
 40
0.01
  9
$DIMDLE
 40
0.0
  9
$DIMEXE
 40
1.5
  9
$DIMTP
 40
0.0
  9
$DIMTM
 40
0.0
  9
$DIMTXT
 40
1.8
  9
$DIMCEN
 40
0.0
  9
$DIMTSZ
 40
0.0
  9
$DIMTOL
 70
     0
  9
$DIMLIM
 70
     0
  9
$DIMTIH
 70
     0
  9
$DIMTOH
 70
     0
  9
$DIMSE1
 70
     0
  9
$DIMSE2
 70
     0
  9
$DIMTAD
 70
     1
  9
$DIMZIN
 70
    12
  9
$DIMBLK
  1

  9
$DIMASO
 70
     1
  9
$DIMSHO
 70
     1
  9
$DIMPOST
  1

  9
$DIMAPOST
  1

  9
$DIMALT
 70
     0
  9
$DIMALTD
 70
     2
  9
$DIMALTF
 40
25.4
  9
$DIMLFAC
 40
1.0
  9
$DIMTOFL
 70
     0
  9
$DIMTVP
 40
0.0
  9
$DIMTIX
 70
     0
  9
$DIMSOXD
 70
     0
  9
$DIMSAH
 70
     0
  9
$DIMBLK1
  1

  9
$DIMBLK2
  1

  9
$DIMSTYLE
  2
1-1
  9
$DIMCLRD
 70
     0
  9
$DIMCLRE
 70
     0
  9
$DIMCLRT
 70
     0
  9
$DIMTFAC
 40
1.25
  9
$DIMGAP
 40
1.0
  9
$DIMJUST
 70
     0
  9
$DIMSD1
 70
     0
  9
$DIMSD2
 70
     0
  9
$DIMTOLJ
 70
     1
  9
$DIMTZIN
 70
    12
  9
$DIMALTZ
 70
    12
  9
$DIMALTTZ
 70
    12
  9
$DIMUPT
 70
     0
  9
$DIMDEC
 70
     4
  9
$DIMTDEC
 70
     4
  9
$DIMALTU
 70
     2
  9
$DIMALTTD
 70
     2
  9
$DIMTXSTY
  7
ROMANS
  9
$DIMAUNIT
 70
     0
  9
$DIMADEC
 70
     2
  9
$DIMALTRND
 40
0.0
  9
$DIMAZIN
 70
     0
  9
$DIMDSEP
 70
    46
  9
$DIMATFIT
 70
     3
  9
$DIMFRAC
 70
     0
  9
$DIMLDRBLK
  1

  9
$DIMLUNIT
 70
     2
  9
$DIMLWD
 70
    -2
  9
$DIMLWE
 70
    -2
  9
$DIMTMOVE
 70
     2
  9
$LUNITS
 70
     2
  9
$LUPREC
 70
     4
  9
$SKETCHINC
 40
0.1
  9
$FILLETRAD
 40
0.5
  9
$AUNITS
 70
     0
  9
$AUPREC
 70
     0
  9
$MENU
  1
acad
  9
$ELEVATION
 40
0.0
  9
$PELEVATION
 40
0.0
  9
$THICKNESS
 40
0.0
  9
$LIMCHECK
 70
     0
  9
$CHAMFERA
 40
0.5
  9
$CHAMFERB
 40
0.5
  9
$CHAMFERC
 40
0.0
  9
$CHAMFERD
 40
0.0
  9
$SKPOLY
 70
     0
  9
$TDCREATE
 40
2452202.646556944
  9
$TDUCREATE
 40
2452202.646556944
  9
$TDUPDATE
 40
2453060.738895867
  9
$TDUUPDATE
 40
2453060.738895867
  9
$TDINDWG
 40
1.4255415278
  9
$TDUSRTIMER
 40
1.4255415278
  9
$USRTIMER
 70
     1
  9
$ANGBASE
 50
0.0
  9
$ANGDIR
 70
     0
  9
$PDMODE
 70
     3
  9
$PDSIZE
 40
0.0
  9
$PLINEWID
 40
0.0
  9
$SPLFRAME
 70
     0
  9
$SPLINETYPE
 70
     6
  9
$SPLINESEGS
 70
     8
  9
$HANDSEED
  5
1597C
  9
$SURFTAB1
 70
     6
  9
$SURFTAB2
 70
     6
  9
$SURFTYPE
 70
     6
  9
$SURFU
 70
     6
  9
$SURFV
 70
     6
  9
$UCSBASE
  2

  9
$UCSNAME
  2

  9
$UCSORG
 10
0.0
 20
0.0
 30
0.0
  9
$UCSXDIR
 10
1.0
 20
0.0
 30
0.0
  9
$UCSYDIR
 10
0.0
 20
1.0
 30
0.0
  9
$UCSORTHOREF
  2

  9
$UCSORTHOVIEW
 70
     0
  9
$UCSORGTOP
 10
0.0
 20
0.0
 30
0.0
  9
$UCSORGBOTTOM
 10
0.0
 20
0.0
 30
0.0
  9
$UCSORGLEFT
 10
0.0
 20
0.0
 30
0.0
  9
$UCSORGRIGHT
 10
0.0
 20
0.0
 30
0.0
  9
$UCSORGFRONT
 10
0.0
 20
0.0
 30
0.0
  9
$UCSORGBACK
 10
0.0
 20
0.0
 30
0.0
  9
$PUCSBASE
  2

  9
$PUCSNAME
  2

  9
$PUCSORG
 10
0.0
 20
0.0
 30
0.0
  9
$PUCSXDIR
 10
1.0
 20
0.0
 30
0.0
  9
$PUCSYDIR
 10
0.0
 20
1.0
 30
0.0
  9
$PUCSORTHOREF
  2

  9
$PUCSORTHOVIEW
 70
     0
  9
$PUCSORGTOP
 10
0.0
 20
0.0
 30
0.0
  9
$PUCSORGBOTTOM
 10
0.0
 20
0.0
 30
0.0
  9
$PUCSORGLEFT
 10
0.0
 20
0.0
 30
0.0
  9
$PUCSORGRIGHT
 10
0.0
 20
0.0
 30
0.0
  9
$PUCSORGFRONT
 10
0.0
 20
0.0
 30
0.0
  9
$PUCSORGBACK
 10
0.0
 20
0.0
 30
0.0
  9
$USERI1
 70
     0
  9
$USERI2
 70
     0
  9
$USERI3
 70
     0
  9
$USERI4
 70
     0
  9
$USERI5
 70
     0
  9
$USERR1
 40
0.0
  9
$USERR2
 40
0.0
  9
$USERR3
 40
0.0
  9
$USERR4
 40
0.0
  9
$USERR5
 40
0.0
  9
$WORLDVIEW
 70
     1
  9
$SHADEDGE
 70
     3
  9
$SHADEDIF
 70
    70
  9
$TILEMODE
 70
     1
  9
$MAXACTVP
 70
    16
  9
$PINSBASE
 10
0.0
 20
0.0
 30
0.0
  9
$PLIMCHECK
 70
     0
  9
$PEXTMIN
 10
1.129916750539944
 20
0.78675001625001
 30
0.0
  9
$PEXTMAX
 10
10.1692507548595
 20
7.080750146250085
 30
0.0
  9
$PLIMMIN
 10
-0.1979161059762549
 20
-0.1979166691697489
  9
$PLIMMAX
 10
11.49708424966165
 20
8.065416268476351
  9
$UNITMODE
 70
     0
  9
$VISRETAIN
 70
     0
  9
$PLINEGEN
 70
     0
  9
$PSLTSCALE
 70
     1
  9
$TREEDEPTH
 70
  3020
  9
$CMLSTYLE
  2
STANDARD
  9
$CMLJUST
 70
     0
  9
$CMLSCALE
 40
1.0
  9
$PROXYGRAPHICS
 70
     1
  9
$MEASUREMENT
 70
     0
  9
$CELWEIGHT
370
    -1
  9
$ENDCAPS
280
     0
  9
$JOINSTYLE
280
     0
  9
$LWDISPLAY
290
     0
  9
$INSUNITS
 70
     0
  9
$HYPERLINKBASE
  1

  9
$STYLESHEET
  1

  9
$XEDIT
290
     1
  9
$CEPSNTYPE
380
     0
  9
$PSTYLEMODE
290
     1
  9
$FINGERPRINTGUID
  2
{B88EE4EA-09A3-11D6-AAD2-00C04F189418}
  9
$VERSIONGUID
  2
{3D04F45A-CC2E-4BE7-8B7D-C211C8C4BEAA}
  9
$EXTNAMES
290
     1
  9
$PSVPSCALE
 40
0.0
  9
$OLESTARTUP
290
     0
  0
ENDSEC
  0
SECTION
  2
CLASSES
  0
CLASS
  1
DICTIONARYVAR
  2
AcDbDictionaryVar
  3
AutoCAD 2000
 90
        0
280
     0
281
     0
  0
CLASS
  1
LWPOLYLINE
  2
AcDbPolyline
  3
AutoCAD 2000
 90
    32768
280
     0
281
     1
  0
CLASS
  1
IDBUFFER
  2
AcDbIdBuffer
  3
AutoCAD 2000
 90
    32768
280
     0
281
     0
  0
CLASS
  1
ACDBDICTIONARYWDFLT
  2
AcDbDictionaryWithDefault
  3
AutoCAD 2000
 90
        0
280
     0
281
     0
  0
CLASS
  1
ACDBPLACEHOLDER
  2
AcDbPlaceHolder
  3
AutoCAD 2000
 90
        0
280
     0
281
     0
  0
CLASS
  1
LAYOUT
  2
AcDbLayout
  3
AutoCAD 2000
 90
        0
280
     0
281
     0
  0
CLASS
  1
LONG_TRANSACTION
  2
AcDbLongTransaction
  3
AutoCAD 2000
 90
    32768
280
     0
281
     0
  0
CLASS
  1
LWPOLYLINE
  2
AcDbPolyline
  3
AutoCAD 2000
 90
    32768
280
     0
281
     1
  0
CLASS
  1
HATCH
  2
AcDbHatch
  3
AutoCAD 2000
 90
    32768
280
     0
281
     1
  0
CLASS
  1
XRECORD
  2
AcDbXrecord
  3
AutoCAD 2000
 90
    32768
280
     0
281
     0
  0
ENDSEC
  0
SECTION
  2
TABLES
  0
TABLE
  2
VPORT
  5
DCE3
330
0
100
AcDbSymbolTable
 70
     2
  0
VPORT
  5
1595A
330
DCE3
100
AcDbSymbolTableRecord
100
AcDbViewportTableRecord
  2
*Active
 70
     0
 10
0.0
 20
0.0
 11
1.0
 21
1.0
 12
2275.348891027642
 22
47.4670863965394
 13
0.0
 23
0.0
 14
0.5
 24
0.5
 15
0.0
 25
0.0
 16
0.0
 26
0.0
 36
1.0
 17
0.0
 27
0.0
 37
0.0
 40
271.145033252693
 41
1.52338811630847
 42
50.0
 43
0.0
 44
0.0
 50
0.0
 51
0.0
 71
     8
 72
   100
 73
     1
 74
     1
 75
     0
 76
     0
 77
     0
 78
     0
281
     0
 65
     1
110
0.0
120
0.0
130
0.0
111
1.0
121
0.0
131
0.0
112
0.0
122
1.0
132
0.0
 79
     0
146
0.0
  0
ENDTAB
  0
TABLE
  2
LTYPE
  5
DCE0
330
0
100
AcDbSymbolTable
 70
    26
  0
LTYPE
  5
DCEC
330
DCE0
100
AcDbSymbolTableRecord
100
AcDbLinetypeTableRecord
  2
BYBLOCK
 70
     0
  3

 72
    65
 73
     0
 40
0.0
  0
LTYPE
  5
DCED
330
DCE0
100
AcDbSymbolTableRecord
100
AcDbLinetypeTableRecord
  2
BYLAYER
 70
     0
  3

 72
    65
 73
     0
 40
0.0
  0
LTYPE
  5
DCEE
330
DCE0
100
AcDbSymbolTableRecord
100
AcDbLinetypeTableRecord
  2
CONTINUOUS
 70
     0
  3
Solid line
 72
    65
 73
     0
 40
0.0
  0
LTYPE
  5
DD0F
330
DCE0
100
AcDbSymbolTableRecord
100
AcDbLinetypeTableRecord
  2
HIDDEN1_01
 70
     0
  3
__ __ __ __ __ __ __ __ __ __ __ __ __ __ __ __
 72
    65
 73
     2
 40
5.0
 49
3.0
 74
     0
 49
-2.0
 74
     0
  0
LTYPE
  5
DD10
330
DCE0
100
AcDbSymbolTableRecord
100
AcDbLinetypeTableRecord
  2
HIDDEN1_02
 70
     0
  3
__ __ __ __ __ __ __ __ __ __ __ __ __ __ __ __
 72
    65
 73
     2
 40
10.0
 49
6.0
 74
     0
 49
-4.0
 74
     0
  0
ENDTAB
  0
TABLE
  2
LAYER
  5
DCDD
330
0
100
AcDbSymbolTable
 70
    20
  0
LAYER
  5
DCE9
330
DCDD
100
AcDbSymbolTableRecord
100
AcDbLayerTableRecord
  2
0
 70
     0
 62
     7
  6
CONTINUOUS
370
    -3
390
EBBC
  0
LAYER
  5
DD28
330
DCDD
100
AcDbSymbolTableRecord
100
AcDbLayerTableRecord
  2
ANCON
 70
     0
 62
     4
  6
CONTINUOUS
370
    -3
390
EBBC
  0
LAYER
  5
DD29
330
DCDD
100
AcDbSymbolTableRecord
100
AcDbLayerTableRecord
  2
DIMS
 70
     0
 62
     2
  6
CONTINUOUS
370
    -3
390
EBBC
  0
LAYER
  5
DD33
330
DCDD
100
AcDbSymbolTableRecord
100
AcDbLayerTableRecord
  2
DEFPOINTS
 70
     0
 62
     7
  6
CONTINUOUS
290
     0
370
    -3
390
EBBC
  0
LAYER
  5
EA1A
330
DCDD
100
AcDbSymbolTableRecord
100
AcDbLayerTableRecord
  2
ASHADE
 70
     4
 62
     7
  6
CONTINUOUS
370
    -3
390
EBBC
  0
LAYER
  5
15885
330
DCDD
100
AcDbSymbolTableRecord
100
AcDbLayerTableRecord
  2
Ancontension
 70
     0
 62
     1
  6
CONTINUOUS
370
    -3
390
EBBC
  0
ENDTAB
  0
TABLE
  2
STYLE
  5
DCDE
330
0
100
AcDbSymbolTable
 70
     3
  0
STYLE
  5
DCEA
330
DCDE
100
AcDbSymbolTableRecord
100
AcDbTextStyleTableRecord
  2
STANDARD
 70
     0
 40
0.0
 41
1.0
 50
0.0
 71
     0
 42
0.2
  3
txt
  4

  0
STYLE
  5
DD02
330
DCDE
100
AcDbSymbolTableRecord
100
AcDbTextStyleTableRecord
  2
ROMANS
 70
     0
 40
0.0
 41
1.0
 50
0.0
 71
     0
 42
40.0
  3
romans
  4

  0
ENDTAB
  0
TABLE
  2
VIEW
  5
DCE1
330
0
100
AcDbSymbolTable
 70
     0
  0
ENDTAB
  0
TABLE
  2
UCS
  5
DCE2
330
0
100
AcDbSymbolTable
 70
     0
  0
ENDTAB
  0
TABLE
  2
APPID
  5
DCE4
330
0
100
AcDbSymbolTable
 70
     6
  0
APPID
  5
DCEB
330
DCE4
100
AcDbSymbolTableRecord
100
AcDbRegAppTableRecord
  2
ACAD
 70
     0
  0
APPID
  5
E64D
330
DCE4
100
AcDbSymbolTableRecord
100
AcDbRegAppTableRecord
  2
AVE_FINISH
 70
     0
  0
APPID
  5
EA18
330
DCE4
100
AcDbSymbolTableRecord
100
AcDbRegAppTableRecord
  2
AVE_RENDER
 70
     0
  0
APPID
  5
EA19
330
DCE4
100
AcDbSymbolTableRecord
100
AcDbRegAppTableRecord
  2
AVE_ENTITY_MATERIAL
 70
     0
  0
APPID
  5
EA26
330
DCE4
100
AcDbSymbolTableRecord
100
AcDbRegAppTableRecord
  2
AVE_MATERIAL
 70
     0
  0
APPID
  5
EA27
330
DCE4
100
AcDbSymbolTableRecord
100
AcDbRegAppTableRecord
  2
AVE_GLOBAL
 70
     0
  0
ENDTAB
  0
TABLE
  2
DIMSTYLE
  5
DCE5
330
0
100
AcDbSymbolTable
 70
     8
100
AcDbDimStyleTable
 71
     0
  0
DIMSTYLE
105
DD1C
330
DCE5
100
AcDbSymbolTableRecord
100
AcDbDimStyleTableRecord
  2
1-1
 70
     0
 41
2.0
 42
4.5
 43
0.0
 44
1.5
 45
0.01
 73
     0
 74
     0
 77
     1
 78
    12
140
1.8
141
0.0
146
1.25
147
1.0
179
     2
279
     2
284
    12
285
    12
286
    12
340
DD02
  0
ENDTAB
  0
TABLE
  2
BLOCK_RECORD
  5
DCDC
330
0
100
AcDbSymbolTable
 70
    24
  0
BLOCK_RECORD
  5
DCF2
102
{ACAD_XDICTIONARY
360
1586E
102
}
330
DCDC
100
AcDbSymbolTableRecord
100
AcDbBlockTableRecord
  2
*MODEL_SPACE
340
EBBF
  0
BLOCK_RECORD
  5
10777
102
{ACAD_XDICTIONARY
360
15847
102
}
330
DCDC
100
AcDbSymbolTableRecord
100
AcDbBlockTableRecord
  2
*Paper_Space
340
10778
  0
BLOCK_RECORD
  5
EA1B
330
DCDC
100
AcDbSymbolTableRecord
100
AcDbBlockTableRecord
  2
AVE_RENDER
340
0
102
{BLKREFS
331
EA1E
331
EA1F
331
EA20
331
EA21
331
EA22
331
EA23
331
EA24
331
EA25
102
}
  0
BLOCK_RECORD
  5
EA28
330
DCDC
100
AcDbSymbolTableRecord
100
AcDbBlockTableRecord
  2
AVE_GLOBAL
340
0
102
{BLKREFS
331
EA2B
102
}
  0
BLOCK_RECORD
  5
EA2C
330
DCDC
100
AcDbSymbolTableRecord
100
AcDbBlockTableRecord
  2
RM_SDB
340
0
102
{BLKREFS
331
EA46
331
EA61
102
}
  0
ENDTAB
  0
ENDSEC
  0
SECTION
  2
BLOCKS
  0
BLOCK
  5
DD38
330
DCF2
100
AcDbEntity
  8
0
100
AcDbBlockBegin
  2
*MODEL_SPACE
 70
     0
 10
0.0
 20
0.0
 30
0.0
  3
*MODEL_SPACE
  1

  0
ENDBLK
  5
DD39
330
DCF2
100
AcDbEntity
  8
0
100
AcDbBlockEnd
  0
BLOCK
  5
10779
330
10777
100
AcDbEntity
 67
     1
  8
0
100
AcDbBlockBegin
  2
*Paper_Space
 70
     0
 10
0.0
 20
0.0
 30
0.0
  3
*Paper_Space
  1

  0
ENDBLK
  5
1077A
330
10777
100
AcDbEntity
 67
     1
  8
0
100
AcDbBlockEnd
  0
BLOCK
  5
EA1C
330
EA1B
100
AcDbEntity
  8
ASHADE
100
AcDbBlockBegin
  2
AVE_RENDER
 70
     0
 10
0.0
 20
0.0
 30
0.0
  3
AVE_RENDER
  1
AVE_RENDER
  0
ENDBLK
  5
EA1D
330
EA1B
100
AcDbEntity
  8
0
100
AcDbBlockEnd
  0
BLOCK
  5
EA29
330
EA28
100
AcDbEntity
  8
ASHADE
100
AcDbBlockBegin
  2
AVE_GLOBAL
 70
     0
 10
0.0
 20
0.0
 30
0.0
  3
AVE_GLOBAL
  1
AVE_GLOBAL
  0
ENDBLK
  5
EA2A
330
EA28
100
AcDbEntity
  8
0
100
AcDbBlockEnd
  0
BLOCK
  5
EA2D
330
EA2C
100
AcDbEntity
  8
ASHADE
100
AcDbBlockBegin
  2
RM_SDB
 70
     2
 10
0.0
 20
0.0
 30
0.0
  3
RM_SDB
  1
RM_SDB
  0
ATTDEF
  5
EA2E
330
EA2C
100
AcDbEntity
  8
ANCON
100
AcDbText
 10
0.0
 20
0.0
 30
0.0
 40
0.2
  1

100
AcDbAttributeDefinition
  3

  2
NAME
 70
     1
  0
ATTDEF
  5
EA2F
330
EA2C
100
AcDbEntity
  8
ANCON
100
AcDbText
 10
0.0
 20
0.0
 30
0.0
 40
0.2
  1

100
AcDbAttributeDefinition
  3

  2
ACADCOLOR
 70
     1
  0
ATTDEF
  5
EA30
330
EA2C
100
AcDbEntity
  8
ANCON
100
AcDbText
 10
0.0
 20
0.0
 30
0.0
 40
0.2
  1

100
AcDbAttributeDefinition
  3

  2
COLOR
 70
     1
  0
ATTDEF
  5
EA31
330
EA2C
100
AcDbEntity
  8
ANCON
100
AcDbText
 10
0.0
 20
0.0
 30
0.0
 40
0.2
  1

100
AcDbAttributeDefinition
  3

  2
OPACITY
 70
     1
  0
ATTDEF
  5
EA32
330
EA2C
100
AcDbEntity
  8
ANCON
100
AcDbText
 10
0.0
 20
0.0
 30
0.0
 40
0.2
  1

100
AcDbAttributeDefinition
  3

  2
SURFACE
 70
     1
  0
ATTDEF
  5
EA33
330
EA2C
100
AcDbEntity
  8
ANCON
100
AcDbText
 10
0.0
 20
0.0
 30
0.0
 40
0.2
  1

100
AcDbAttributeDefinition
  3

  2
SURF1
 70
     1
  0
ATTDEF
  5
EA34
330
EA2C
100
AcDbEntity
  8
ANCON
100
AcDbText
 10
0.0
 20
0.0
 30
0.0
 40
0.2
  1

100
AcDbAttributeDefinition
  3

  2
SURF2
 70
     1
  0
ATTDEF
  5
EA35
330
EA2C
100
AcDbEntity
  8
ANCON
100
AcDbText
 10
0.0
 20
0.0
 30
0.0
 40
0.2
  1

100
AcDbAttributeDefinition
  3

  2
SURF3
 70
     1
  0
ATTDEF
  5
EA36
330
EA2C
100
AcDbEntity
  8
ANCON
100
AcDbText
 10
0.0
 20
0.0
 30
0.0
 40
0.2
  1

100
AcDbAttributeDefinition
  3

  2
SURF4
 70
     1
  0
ATTDEF
  5
EA37
330
EA2C
100
AcDbEntity
  8
ANCON
100
AcDbText
 10
0.0
 20
0.0
 30
0.0
 40
0.2
  1

100
AcDbAttributeDefinition
  3

  2
SHADINGRATE
 70
     1
  0
ATTDEF
  5
EA38
330
EA2C
100
AcDbEntity
  8
ANCON
100
AcDbText
 10
0.0
 20
0.0
 30
0.0
 40
0.2
  1

100
AcDbAttributeDefinition
  3

  2
DISPLACEMENT
 70
     1
  0
ATTDEF
  5
EA39
330
EA2C
100
AcDbEntity
  8
ANCON
100
AcDbText
 10
0.0
 20
0.0
 30
0.0
 40
0.2
  1

100
AcDbAttributeDefinition
  3

  2
DISP1
 70
     1
  0
ATTDEF
  5
EA3A
330
EA2C
100
AcDbEntity
  8
ANCON
100
AcDbText
 10
0.0
 20
0.0
 30
0.0
 40
0.2
  1

100
AcDbAttributeDefinition
  3

  2
DISP2
 70
     1
  0
ATTDEF
  5
EA3B
330
EA2C
100
AcDbEntity
  8
ANCON
100
AcDbText
 10
0.0
 20
0.0
 30
0.0
 40
0.2
  1

100
AcDbAttributeDefinition
  3

  2
DISP3
 70
     1
  0
ATTDEF
  5
EA3C
330
EA2C
100
AcDbEntity
  8
ANCON
100
AcDbText
 10
0.0
 20
0.0
 30
0.0
 40
0.2
  1

100
AcDbAttributeDefinition
  3

  2
DISP4
 70
     1
  0
ATTDEF
  5
EA3D
330
EA2C
100
AcDbEntity
  8
ANCON
100
AcDbText
 10
0.0
 20
0.0
 30
0.0
 40
0.2
  1

100
AcDbAttributeDefinition
  3

  2
DBOUND
 70
     1
  0
ATTDEF
  5
EA3E
330
EA2C
100
AcDbEntity
  8
ANCON
100
AcDbText
 10
0.0
 20
0.0
 30
0.0
 40
0.2
  1

100
AcDbAttributeDefinition
  3

  2
SMOOTH
 70
     1
  0
ATTDEF
  5
EA3F
330
EA2C
100
AcDbEntity
  8
ANCON
100
AcDbText
 10
0.0
 20
0.0
 30
0.0
 40
0.2
  1

100
AcDbAttributeDefinition
  3

  2
ATMOSHPERE
 70
     1
  0
ATTDEF
  5
EA40
330
EA2C
100
AcDbEntity
  8
ANCON
100
AcDbText
 10
0.0
 20
0.0
 30
0.0
 40
0.2
  1

100
AcDbAttributeDefinition
  3

  2
ATMO1
 70
     1
  0
ATTDEF
  5
EA41
330
EA2C
100
AcDbEntity
  8
ANCON
100
AcDbText
 10
0.0
 20
0.0
 30
0.0
 40
0.2
  1

100
AcDbAttributeDefinition
  3

  2
ATMO2
 70
     1
  0
ATTDEF
  5
EA42
330
EA2C
100
AcDbEntity
  8
ANCON
100
AcDbText
 10
0.0
 20
0.0
 30
0.0
 40
0.2
  1

100
AcDbAttributeDefinition
  3

  2
ATMO3
 70
     1
  0
ATTDEF
  5
EA43
330
EA2C
100
AcDbEntity
  8
ANCON
100
AcDbText
 10
0.0
 20
0.0
 30
0.0
 40
0.2
  1

100
AcDbAttributeDefinition
  3

  2
ATMO4
 70
     1
  0
ATTDEF
  5
EA44
330
EA2C
100
AcDbEntity
  8
ANCON
100
AcDbText
 10
0.0
 20
0.0
 30
0.0
 40
0.2
  1

100
AcDbAttributeDefinition
  3

  2
TCCORD
 70
     1
  0
ENDBLK
  5
EA45
330
EA2C
100
AcDbEntity
  8
0
100
AcDbBlockEnd
  0
ENDSEC
  0
SECTION
  2
ENTITIES
  0
INSERT
  5
EA1E
330
DCF2
100
AcDbEntity
  8
ASHADE
 62
     1
100
AcDbBlockReference
  2
AVE_RENDER
 10
0.0
 20
0.0
 30
0.0
1001
AVE_RENDER
1002
{
1070
     7
1000
Pref
1070
    50
1070
    20
1070
     1
1070
     0
1000

1070
    10
1070
     1
1070
    10
1040
1.0
1070
     1
1040
0.3
1040
0.7
1040
0.0
1040
10.0
1010
-1.0
1020
-1.0
1030
-1.0
1040
0.3
1070
    49
1070
     0
1070
     0
1010
1.0
1020
1.0
1030
1.0
1040
45.0
1070
     1
1070
     0
1000
WCS
1040
0.0
1070
     0
1040
10.0
1002
}
  0
INSERT
  5
EA1F
330
DCF2
100
AcDbEntity
  8
ASHADE
 62
     3
100
AcDbBlockReference
  2
AVE_RENDER
 10
0.0
 20
0.0
 30
0.0
1001
AVE_RENDER
1002
{
1070
     0
1000
Full Opt
1070
     0
1070
     1
1070
     1
1070
     1
1070
     0
1070
     0
1070
     0
1070
     1
1070
     1
1040
0.0001
1040
0.0001
1002
}
  0
INSERT
  5
EA20
330
DCF2
100
AcDbEntity
  8
ASHADE
 62
     4
100
AcDbBlockReference
  2
AVE_RENDER
 10
0.0
 20
0.0
 30
0.0
1001
AVE_RENDER
1002
{
1070
     0
1000
Quick Opt
1070
     0
1070
     1
1070
     1
1070
     1
1070
     0
1070
     0
1070
     1
1002
}
  0
INSERT
  5
EA21
330
DCF2
100
AcDbEntity
  8
ASHADE
 62
     5
100
AcDbBlockReference
  2
AVE_RENDER
 10
0.0
 20
0.0
 30
0.0
1001
AVE_RENDER
1002
{
1070
     1
1000
Scanl Opt
1070
     2
1070
     0
1070
     2
1040
2.0
1040
4.0
1070
     0
1070
     1
1070
     0
1040
0.03
1002
}
  0
INSERT
  5
EA22
330
DCF2
100
AcDbEntity
  8
ASHADE
 62
     6
100
AcDbBlockReference
  2
AVE_RENDER
 10
0.0
 20
0.0
 30
0.0
1001
AVE_RENDER
1002
{
1070
     2
1000
Raytr Opt
1070
     2
1070
     0
1070
     2
1040
2.0
1040
4.0
1070
     0
1070
     1
1070
     1
1040
0.03
1070
     3
1040
0.03
1002
}
  0
INSERT
  5
EA23
330
DCF2
100
AcDbEntity
  8
ASHADE
 62
     7
100
AcDbBlockReference
  2
AVE_RENDER
 10
0.0
 20
0.0
 30
0.0
1001
AVE_RENDER
1002
{
1070
     0
1000
RFile Opt
1070
     1
1070
   640
1070
   480
1070
 10000
1070
     1
1070
     8
1070
     8
1070
     0
1070
     0
1070
     0
1070
     0
1070
     0
1070
     0
1070
     0
1002
}
  0
INSERT
  5
EA24
330
DCF2
100
AcDbEntity
  8
ASHADE
 62
     8
100
AcDbBlockReference
  2
AVE_RENDER
 10
0.0
 20
0.0
 30
0.0
1001
AVE_RENDER
1002
{
1070
     0
1000
Fog Opt
1070
     0
1070
     0
1040
0.0
1040
1.0
1040
0.0
1040
1.0
1010
0.5
1020
0.5
1030
0.5
1002
}
  0
INSERT
  5
EA25
330
DCF2
100
AcDbEntity
  8
ASHADE
 62
     9
100
AcDbBlockReference
  2
AVE_RENDER
 10
0.0
 20
0.0
 30
0.0
1001
AVE_RENDER
1002
{
1070
     0
1000
BG Opt
1070
     0
1070
     0
1010
1.0
1020
1.0
1030
1.0
1010
1.0
1020
0.0
1030
0.0
1010
0.0
1020
1.0
1030
0.0
1010
0.0
1020
0.0
1030
1.0
1040
0.5
1040
0.33
1040
0.0
1000

1070
     1
1000

1070
     1
1070
     1
1040
1.0
1040
1.0
1040
0.0
1040
0.0
1070
     0
1002
}
  0
INSERT
  5
EA2B
330
DCF2
100
AcDbEntity
  8
ASHADE
 62
     1
100
AcDbBlockReference
  2
AVE_GLOBAL
 10
0.0
 20
0.0
 30
0.0
1001
AVE_MATERIAL
1002
{
1000
*GLOBAL*
1000
1
1000
Global finish.
1002
{
1002
}
1002
{
1070
    63
1002
{
1002
{
1010
-1.0
1020
-1.0
1030
-1.0
1002
}
1040
0.1000000014901161
1000

1040
0.0
1002
{
1002
}
1040
0.0
1002
{
1002
}
1040
0.0
1002
}
1002
{
1002
{
1010
-1.0
1020
-1.0
1030
-1.0
1002
}
1040
0.6999999880790711
1000

1040
0.0
1002
{
1002
}
1040
0.0
1002
{
1002
}
1040
0.0
1002
}
1002
{
1002
{
1010
-1.0
1020
-1.0
1030
-1.0
1002
}
1040
0.2000000029802322
1000

1040
0.0
1002
{
1002
}
1040
0.0
1002
{
1002
}
1040
0.0
1002
}
1002
{
1070
     0
1002
{
1070
     1
1002
{
1040
1.0
1040
1.0
1000

1040
0.0
1002
{
1002
}
1040
0.0
1002
{
1002
}
1040
0.0
1002
}
1002
}
1040
1.0
1040
0.0
1040
0.0
1002
}
1002
{
1040
1.0
1040
1.0
1000

1040
0.0
1002
{
1002
}
1040
0.0
1002
{
1002
}
1040
0.0
1002
}
1002
{
1040
0.5
1040
1.0
1000

1040
0.0
1002
{
1002
}
1040
0.0
1002
{
1002
}
1040
0.0
1002
}
1002
{
1070
     0
1040
0.0
1002
{
1002
}
1040
1.0
1002
{
1002
}
1040
0.0
1002
}
1002
{
1040
0.0
1002
{
1002
{
1010
0.0
1020
0.0
1030
0.0
1002
}
1040
1.0
1000

1040
0.0
1002
{
1002
}
1040
0.0
1002
{
1002
}
1040
0.0
1002
}
1002
}
1002
{
1002
{
1070
     1
1002
{
1040
0.0
1040
1.0
1000

1040
0.0
1002
{
1002
}
1040
0.0
1002
{
1002
}
1040
0.0
1002
}
1002
}
1040
0.0
1002
{
1002
}
1010
1.0
1020
0.0
1030
0.0
1010
0.0
1020
1.0
1030
0.0
1010
0.0
1020
0.0
1030
1.0
1070
     0
1002
}
1002
{
1002
{
1040
1.0
1040
1.0
1002
{
1070
     1
1002
{
1040
1.0
1040
1.0
1000

1040
0.0
1002
{
1002
}
1040
0.0
1002
{
1002
}
1040
0.0
1002
}
1002
}
1002
}
1070
     0
1040
0.0
1002
{
1002
}
1002
}
1002
{
1002
}
1002
}
1002
{
1071
        3
1070
     3
1070
     0
1002
{
1070
     2
1070
     0
1070
     0
1040
0.0
1002
}
1070
     0
1070
     2
1002
{
1002
}
1002
}
1002
{
1040
8030.0
1040
190.3000030517578
1040
0.3050000071525574
1040
228.0
1040
545.0
1040
14.0
1040
17.39999961853027
1040
0.4560000002384186
1002
}
1002
}
  0
INSERT
  5
EA46
330
DCF2
100
AcDbEntity
  8
ANCON
100
AcDbBlockReference
 66
     1
  2
RM_SDB
 10
0.0
 20
0.0
 30
0.0
1001
AVE_MATERIAL
1002
{
1000
CHROME LAKE
1000
1
1000

1002
{
1002
}
1002
{
1070
   295
1002
{
1002
{
1010
0.0
1020
0.0
1030
0.0
1002
}
1040
1.0
1000

1040
0.0
1002
{
1002
}
1040
0.0
1002
{
1002
}
1040
0.0
1002
}
1002
{
1002
{
1010
0.8500000238418579
1020
0.8500000238418579
1030
0.8500000238418579
1002
}
1040
1.0
1000

1040
0.0
1002
{
1002
}
1040
0.0
1002
{
1002
}
1040
0.0
1002
}
1002
{
1002
{
1010
0.874509811401367
1020
0.9411764740943906
1030
1.0
1002
}
1040
1.0
1000

1040
0.0
1002
{
1002
}
1040
0.0
1002
{
1002
}
1040
0.0
1002
}
1002
{
1070
     0
1002
{
1070
     1
1002
{
1040
1.0
1040
1.0
1000

1040
0.0
1002
{
1002
}
1040
0.0
1002
{
1002
}
1040
0.0
1002
}
1002
}
1040
0.0
1040
0.0
1040
0.0
1002
}
1002
{
1040
0.0
1040
0.0
1000

1040
0.0
1002
{
1002
}
1040
0.0
1002
{
1002
}
1040
0.0
1002
}
1002
{
1040
0.4000000059604645
1040
1.0
1000

1040
0.0
1002
{
1002
}
1040
0.0
1002
{
1002
}
1040
0.0
1002
}
1002
{
1070
     0
1040
0.0
1002
{
1002
}
1040
0.0
1002
{
1002
}
1040
0.0
1002
}
1002
{
1040
0.0
1002
{
1002
{
1010
0.0
1020
0.0
1030
0.0
1002
}
1040
0.0
1000

1040
0.0
1002
{
1002
}
1040
0.0
1002
{
1002
}
1040
0.0
1002
}
1002
}
1002
{
1002
{
1070
     1
1002
{
1040
1.0
1040
1.0
1000

1040
0.0
1002
{
1002
}
1040
0.0
1002
{
1002
}
1040
0.0
1002
}
1002
}
1040
1.0
1002
{
1002
{
1070
     1
1002
{
1002
{
1000
BIGLAKE.TGA
1002
{
1002
}
1070
     3
1070
     0
1002
{
1002
}
1002
}
1002
{
1002
{
1040
1.0
1040
0.0
1070
     1
1002
}
1002
{
1040
1.0
1040
0.0
1070
     1
1002
}
1040
0.0
1002
}
1002
}
1002
}
1002
{
1002
}
1002
}
1010
1.0
1020
0.0
1030
0.0
1010
0.0
1020
1.0
1030
0.0
1010
0.0
1020
0.0
1030
1.0
1070
     2
1002
}
1002
{
1002
{
1040
0.0
1040
0.0
1002
{
1070
     0
1002
}
1002
}
1070
     0
1040
0.0
1002
{
1002
}
1002
}
1002
{
1002
}
1002
}
1002
{
1071
        0
1070
     3
1070
     0
1002
{
1070
     2
1070
     1
1070
     0
1040
0.0
1002
}
1070
     0
1070
     0
1002
{
1002
}
1002
}
1002
{
1040
0.0
1040
0.0
1040
0.0
1040
0.0
1040
0.0
1040
0.0
1040
0.0
1040
0.0
1002
}
1002
}
  0
ATTRIB
  5
EA47
330
EA46
100
AcDbEntity
  8
ANCON
100
AcDbText
 10
0.0
 20
0.0
 30
0.0
 40
0.2
  1
CHROME LAKE
100
AcDbAttribute
  2
NAME
 70
     1
  0
ATTRIB
  5
EA48
330
EA46
100
AcDbEntity
  8
ANCON
100
AcDbText
 10
0.0
 20
0.0
 30
0.0
 40
0.2
  1

100
AcDbAttribute
  2
ACADCOLOR
 70
     1
  0
ATTRIB
  5
EA49
330
EA46
100
AcDbEntity
  8
ANCON
100
AcDbText
 10
0.0
 20
0.0
 30
0.0
 40
0.2
  1
0.8500,0.8500,0.8500
100
AcDbAttribute
  2
COLOR
 70
     1
  0
ATTRIB
  5
EA4A
330
EA46
100
AcDbEntity
  8
ANCON
100
AcDbText
 10
0.0
 20
0.0
 30
0.0
 40
0.2
  1
1.0,1.0,1.0
100
AcDbAttribute
  2
OPACITY
 70
     1
  0
ATTRIB
  5
EA4B
330
EA46
100
AcDbEntity
  8
ANCON
100
AcDbText
 10
0.0
 20
0.0
 30
0.0
 40
0.2
  1
("nullsurf" "")
100
AcDbAttribute
  2
SURFACE
 70
     1
  0
ATTRIB
  5
EA4C
330
EA46
100
AcDbEntity
  8
ANCON
100
AcDbText
 10
0.0
 20
0.0
 30
0.0
 40
0.2
  1
(11 "Ka" "1")(11 "Kd" "1")(11 "Ks" "1")(11 "roughness" "0.4")
100
AcDbAttribute
  2
SURF1
 70
     1
  0
ATTRIB
  5
EA4D
330
EA46
100
AcDbEntity
  8
ANCON
100
AcDbText
 10
0.0
 20
0.0
 30
0.0
 40
0.2
  1

100
AcDbAttribute
  2
SURF2
 70
     1
  0
ATTRIB
  5
EA4E
330
EA46
100
AcDbEntity
  8
ANCON
100
AcDbText
 10
0.0
 20
0.0
 30
0.0
 40
0.2
  1

100
AcDbAttribute
  2
SURF3
 70
     1
  0
ATTRIB
  5
EA4F
330
EA46
100
AcDbEntity
  8
ANCON
100
AcDbText
 10
0.0
 20
0.0
 30
0.0
 40
0.2
  1

100
AcDbAttribute
  2
SURF4
 70
     1
  0
ATTRIB
  5
EA50
330
EA46
100
AcDbEntity
  8
ANCON
100
AcDbText
 10
0.0
 20
0.0
 30
0.0
 40
0.2
  1
-1.0
100
AcDbAttribute
  2
SHADINGRATE
 70
     1
  0
ATTRIB
  5
EA51
330
EA46
100
AcDbEntity
  8
ANCON
100
AcDbText
 10
0.0
 20
0.0
 30
0.0
 40
0.2
  1
("nulldisp" "")
100
AcDbAttribute
  2
DISPLACEMENT
 70
     1
  0
ATTRIB
  5
EA52
330
EA46
100
AcDbEntity
  8
ANCON
100
AcDbText
 10
0.0
 20
0.0
 30
0.0
 40
0.2
  1

100
AcDbAttribute
  2
DISP1
 70
     1
  0
ATTRIB
  5
EA53
330
EA46
100
AcDbEntity
  8
ANCON
100
AcDbText
 10
0.0
 20
0.0
 30
0.0
 40
0.2
  1

100
AcDbAttribute
  2
DISP2
 70
     1
  0
ATTRIB
  5
EA54
330
EA46
100
AcDbEntity
  8
ANCON
100
AcDbText
 10
0.0
 20
0.0
 30
0.0
 40
0.2
  1

100
AcDbAttribute
  2
DISP3
 70
     1
  0
ATTRIB
  5
EA55
330
EA46
100
AcDbEntity
  8
ANCON
100
AcDbText
 10
0.0
 20
0.0
 30
0.0
 40
0.2
  1

100
AcDbAttribute
  2
DISP4
 70
     1
  0
ATTRIB
  5
EA56
330
EA46
100
AcDbEntity
  8
ANCON
100
AcDbText
 10
0.0
 20
0.0
 30
0.0
 40
0.2
  1
0.0
100
AcDbAttribute
  2
DBOUND
 70
     1
  0
ATTRIB
  5
EA57
330
EA46
100
AcDbEntity
  8
ANCON
100
AcDbText
 10
0.0
 20
0.0
 30
0.0
 40
0.2
  1
0
100
AcDbAttribute
  2
SMOOTH
 70
     1
  0
ATTRIB
  5
EA58
330
EA46
100
AcDbEntity
  8
ANCON
100
AcDbText
 10
0.0
 20
0.0
 30
0.0
 40
0.2
  1
("" "")
100
AcDbAttribute
  2
ATMOSHPERE
 70
     1
  0
ATTRIB
  5
EA59
330
EA46
100
AcDbEntity
  8
ANCON
100
AcDbText
 10
0.0
 20
0.0
 30
0.0
 40
0.2
  1

100
AcDbAttribute
  2
ATMO1
 70
     1
  0
ATTRIB
  5
EA5A
330
EA46
100
AcDbEntity
  8
ANCON
100
AcDbText
 10
0.0
 20
0.0
 30
0.0
 40
0.2
  1

100
AcDbAttribute
  2
ATMO2
 70
     1
  0
ATTRIB
  5
EA5B
330
EA46
100
AcDbEntity
  8
ANCON
100
AcDbText
 10
0.0
 20
0.0
 30
0.0
 40
0.2
  1

100
AcDbAttribute
  2
ATMO3
 70
     1
  0
ATTRIB
  5
EA5C
330
EA46
100
AcDbEntity
  8
ANCON
100
AcDbText
 10
0.0
 20
0.0
 30
0.0
 40
0.2
  1

100
AcDbAttribute
  2
ATMO4
 70
     1
  0
ATTRIB
  5
EA5D
330
EA46
100
AcDbEntity
  8
ANCON
100
AcDbText
 10
0.0
 20
0.0
 30
0.0
 40
0.2
  1
0.0 0.0 1.0 0.0 0.0 1.0 1.0 1.0
100
AcDbAttribute
  2
TCCORD
 70
     1
  0
SEQEND
  5
EA5E
330
EA46
100
AcDbEntity
  8
ANCON
  0
INSERT
  5
EA61
330
DCF2
100
AcDbEntity
  8
ANCON
100
AcDbBlockReference
 66
     1
  2
RM_SDB
 10
0.0
 20
0.0
 30
0.0
1001
AVE_MATERIAL
1002
{
1000
GRAY MARBLE
1000
1
1000

1002
{
1002
}
1002
{
1070
    39
1002
{
1002
{
1010
0.0
1020
0.0
1030
0.0
1002
}
1040
1.0
1000

1040
0.0
1002
{
1002
}
1040
0.0
1002
{
1002
}
1040
0.0
1002
}
1002
{
1002
{
1010
0.0
1020
0.0
1030
0.0
1002
}
1040
1.0
1000

1040
0.0
1002
{
1002
{
1070
     1
1002
{
1002
{
1000
GRAYMARB.TGA
1002
{
1002
}
1070
     3
1070
     0
1002
{
1002
}
1002
}
1002
{
1002
{
1040
1.0
1040
0.0
1070
     1
1002
}
1002
{
1040
1.0
1040
0.0
1070
     1
1002
}
1040
0.0
1002
}
1002
}
1002
}
1002
{
1002
}
1002
}
1040
1.0
1002
{
1002
}
1040
0.0
1002
}
1002
{
1002
{
1010
1.0
1020
1.0
1030
1.0
1002
}
1040
1.0
1000

1040
0.0
1002
{
1002
}
1040
0.0
1002
{
1002
}
1040
0.0
1002
}
1002
{
1070
     0
1002
{
1070
     1
1002
{
1040
1.0
1040
1.0
1000

1040
0.0
1002
{
1002
}
1040
0.0
1002
{
1002
}
1040
0.0
1002
}
1002
}
1040
0.0
1040
0.0
1040
0.0
1002
}
1002
{
1040
0.0
1040
0.0
1000

1040
0.0
1002
{
1002
}
1040
0.0
1002
{
1002
}
1040
0.0
1002
}
1002
{
1040
0.6600000262260437
1040
1.0
1000

1040
0.0
1002
{
1002
}
1040
0.0
1002
{
1002
}
1040
0.0
1002
}
1002
{
1070
     0
1040
0.0
1002
{
1002
}
1040
0.0
1002
{
1002
}
1040
0.0
1002
}
1002
{
1040
0.0
1002
{
1002
{
1010
0.0
1020
0.0
1030
0.0
1002
}
1040
0.0
1000

1040
0.0
1002
{
1002
}
1040
0.0
1002
{
1002
}
1040
0.0
1002
}
1002
}
1002
{
1002
{
1070
     1
1002
{
1040
0.0
1040
1.0
1000

1040
0.0
1002
{
1002
}
1040
0.0
1002
{
1002
}
1040
0.0
1002
}
1002
}
1040
0.0
1002
{
1002
}
1010
0.0
1020
0.0
1030
0.0
1010
0.0
1020
0.0
1030
0.0
1010
0.0
1020
0.0
1030
0.0
1070
     0
1002
}
1002
{
1002
{
1040
0.0
1040
0.0
1002
{
1070
     0
1002
}
1002
}
1070
     0
1040
0.0
1002
{
1002
}
1002
}
1002
{
1002
}
1002
}
1002
{
1071
        0
1070
     3
1070
     0
1002
{
1070
     2
1070
     1
1070
     0
1040
0.0
1002
}
1070
     0
1070
     0
1002
{
1002
}
1002
}
1002
{
1040
0.0
1040
0.0
1040
0.0
1040
0.0
1040
0.0
1040
0.0
1040
0.0
1040
0.0
1002
}
1002
}
  0
ATTRIB
  5
EA62
330
EA61
100
AcDbEntity
  8
ANCON
100
AcDbText
 10
0.0
 20
0.0
 30
0.0
 40
0.2
  1
GRAY MARBLE
100
AcDbAttribute
  2
NAME
 70
     1
  0
ATTRIB
  5
EA63
330
EA61
100
AcDbEntity
  8
ANCON
100
AcDbText
 10
0.0
 20
0.0
 30
0.0
 40
0.2
  1
 
100
AcDbAttribute
  2
ACADCOLOR
 70
     1
  0
ATTRIB
  5
EA64
330
EA61
100
AcDbEntity
  8
ANCON
100
AcDbText
 10
0.0
 20
0.0
 30
0.0
 40
0.2
  1
0.0000,0.0000,0.0000
100
AcDbAttribute
  2
COLOR
 70
     1
  0
ATTRIB
  5
EA65
330
EA61
100
AcDbEntity
  8
ANCON
100
AcDbText
 10
0.0
 20
0.0
 30
0.0
 40
0.2
  1
1.0,1.0,1.0
100
AcDbAttribute
  2
OPACITY
 70
     1
  0
ATTRIB
  5
EA66
330
EA61
100
AcDbEntity
  8
ANCON
100
AcDbText
 10
0.0
 20
0.0
 30
0.0
 40
0.2
  1
("nullsurf" "")
100
AcDbAttribute
  2
SURFACE
 70
     1
  0
ATTRIB
  5
EA67
330
EA61
100
AcDbEntity
  8
ANCON
100
AcDbText
 10
0.0
 20
0.0
 30
0.0
 40
0.2
  1
(11 "Ka" "1")(11 "Kd" "1")(11 "Ks" "1")(11 "roughness" "0.66")
100
AcDbAttribute
  2
SURF1
 70
     1
  0
ATTRIB
  5
EA68
330
EA61
100
AcDbEntity
  8
ANCON
100
AcDbText
 10
0.0
 20
0.0
 30
0.0
 40
0.2
  1

100
AcDbAttribute
  2
SURF2
 70
     1
  0
ATTRIB
  5
EA69
330
EA61
100
AcDbEntity
  8
ANCON
100
AcDbText
 10
0.0
 20
0.0
 30
0.0
 40
0.2
  1

100
AcDbAttribute
  2
SURF3
 70
     1
  0
ATTRIB
  5
EA6A
330
EA61
100
AcDbEntity
  8
ANCON
100
AcDbText
 10
0.0
 20
0.0
 30
0.0
 40
0.2
  1

100
AcDbAttribute
  2
SURF4
 70
     1
  0
ATTRIB
  5
EA6B
330
EA61
100
AcDbEntity
  8
ANCON
100
AcDbText
 10
0.0
 20
0.0
 30
0.0
 40
0.2
  1
-1.0
100
AcDbAttribute
  2
SHADINGRATE
 70
     1
  0
ATTRIB
  5
EA6C
330
EA61
100
AcDbEntity
  8
ANCON
100
AcDbText
 10
0.0
 20
0.0
 30
0.0
 40
0.2
  1
("nulldisp" "")
100
AcDbAttribute
  2
DISPLACEMENT
 70
     1
  0
ATTRIB
  5
EA6D
330
EA61
100
AcDbEntity
  8
ANCON
100
AcDbText
 10
0.0
 20
0.0
 30
0.0
 40
0.2
  1

100
AcDbAttribute
  2
DISP1
 70
     1
  0
ATTRIB
  5
EA6E
330
EA61
100
AcDbEntity
  8
ANCON
100
AcDbText
 10
0.0
 20
0.0
 30
0.0
 40
0.2
  1

100
AcDbAttribute
  2
DISP2
 70
     1
  0
ATTRIB
  5
EA6F
330
EA61
100
AcDbEntity
  8
ANCON
100
AcDbText
 10
0.0
 20
0.0
 30
0.0
 40
0.2
  1

100
AcDbAttribute
  2
DISP3
 70
     1
  0
ATTRIB
  5
EA70
330
EA61
100
AcDbEntity
  8
ANCON
100
AcDbText
 10
0.0
 20
0.0
 30
0.0
 40
0.2
  1

100
AcDbAttribute
  2
DISP4
 70
     1
  0
ATTRIB
  5
EA71
330
EA61
100
AcDbEntity
  8
ANCON
100
AcDbText
 10
0.0
 20
0.0
 30
0.0
 40
0.2
  1
0.0
100
AcDbAttribute
  2
DBOUND
 70
     1
  0
ATTRIB
  5
EA72
330
EA61
100
AcDbEntity
  8
ANCON
100
AcDbText
 10
0.0
 20
0.0
 30
0.0
 40
0.2
  1
0
100
AcDbAttribute
  2
SMOOTH
 70
     1
  0
ATTRIB
  5
EA73
330
EA61
100
AcDbEntity
  8
ANCON
100
AcDbText
 10
0.0
 20
0.0
 30
0.0
 40
0.2
  1
("" "")
100
AcDbAttribute
  2
ATMOSHPERE
 70
     1
  0
ATTRIB
  5
EA74
330
EA61
100
AcDbEntity
  8
ANCON
100
AcDbText
 10
0.0
 20
0.0
 30
0.0
 40
0.2
  1

100
AcDbAttribute
  2
ATMO1
 70
     1
  0
ATTRIB
  5
EA75
330
EA61
100
AcDbEntity
  8
ANCON
100
AcDbText
 10
0.0
 20
0.0
 30
0.0
 40
0.2
  1

100
AcDbAttribute
  2
ATMO2
 70
     1
  0
ATTRIB
  5
EA76
330
EA61
100
AcDbEntity
  8
ANCON
100
AcDbText
 10
0.0
 20
0.0
 30
0.0
 40
0.2
  1

100
AcDbAttribute
  2
ATMO3
 70
     1
  0
ATTRIB
  5
EA77
330
EA61
100
AcDbEntity
  8
ANCON
100
AcDbText
 10
0.0
 20
0.0
 30
0.0
 40
0.2
  1

100
AcDbAttribute
  2
ATMO4
 70
     1
  0
ATTRIB
  5
EA78
330
EA61
100
AcDbEntity
  8
ANCON
100
AcDbText
 10
0.0
 20
0.0
 30
0.0
 40
0.2
  1
0.0 0.0 1.0 0.0 0.0 1.0 1.0 1.0
100
AcDbAttribute
  2
TCCORD
 70
     1
  0
SEQEND
  5
EA79
330
EA61
100
AcDbEntity
  8
ANCON
  0
MTEXT
  5
F39D
330
DCF2
100
AcDbEntity
  8
DIMS
100
AcDbMText
 10
167.3257715899594
 20
271.1240525690643
 30
0.0
 40
1.8
 41
0.0
 71
     1
 72
     1
  1
\A1; 
  7
ROMANS
 73
     1
 44
1.0
1001
ACAD
1000
MTEXTBEGIN
1070
    73
1070
     1
1070
    44
1040
1.0
1070
    74
1070
     0
1000
MTEXTEND
  0
MTEXT
  5
F39F
330
DCF2
100
AcDbEntity
  8
DIMS
100
AcDbMText
 10
172.8591319803946
 20
271.1240525690643
 30
0.0
 40
1.8
 41
0.0
 71
     1
 72
     1
  1
\A1;  
  7
ROMANS
 73
     1
 44
1.0
1001
ACAD
1000
MTEXTBEGIN
1070
    73
1070
     1
1070
    44
1040
1.0
1070
    74
1070
     0
1000
MTEXTEND
  0
LINE
  5
13D1A
330
DCF2
100
AcDbEntity
  8
Ancontension
100
AcDbLine
 10
2338.846099192442
 20
3.884475867326955
 30
0.0
 11
2338.846099192442
 21
75.72657345809306
 31
0.0
  0
LINE
  5
13D1B
330
DCF2
100
AcDbEntity
  8
Ancontension
100
AcDbLine
 10
2188.846099192442
 20
3.884475867326727
 30
0.0
 11
2188.846099192442
 21
75.7265734580933
 31
0.0
  0
LINE
  5
13D1C
330
DCF2
100
AcDbEntity
  8
Ancontension
100
AcDbLine
 10
2408.549202490052
 20
12.10120275132112
 30
0.0
 11
2340.549202490052
 21
2.808272029716249
 31
0.0
  0
LINE
  5
13D1D
330
DCF2
100
AcDbEntity
  8
Ancontension
100
AcDbLine
 10
2338.846099192442
 20
4.294458105044667
 30
0.0
 11
2338.846099192442
 21
75.31659122037535
 31
0.0
  0
LINE
  5
13D1E
330
DCF2
100
AcDbEntity
  8
Ancontension
100
AcDbLine
 10
2119.142995894832
 20
12.10120275132112
 30
0.0
 11
2187.142995894832
 21
2.808272029716249
 31
0.0
  0
LINE
  5
13D1F
330
DCF2
100
AcDbEntity
  8
Ancontension
100
AcDbLine
 10
2188.846099192442
 20
4.294458105044667
 30
0.0
 11
2188.846099192442
 21
75.31659122037535
 31
0.0
  0
LINE
  5
13D20
330
DCF2
100
AcDbEntity
  8
Ancontension
100
AcDbLine
 10
2207.102993695666
 20
0.8055246627102404
 30
0.0
 11
2320.589204689216
 21
0.8055246627098995
 31
0.0
  0
ARC
  5
13D21
330
DCF2
100
AcDbEntity
  8
Ancontension
100
AcDbCircle
 10
2187.346099192442
 20
4.294458105044667
 30
0.0
 40
1.5
100
AcDbArc
 50
262.2181222908892
 51
0.0
  0
ARC
  5
13D22
330
DCF2
100
AcDbEntity
  8
Ancontension
100
AcDbCircle
 10
2190.346099192443
 20
3.884475867326727
 30
0.0
 40
1.5
100
AcDbArc
 50
180.0
 51
262.2181222908892
  0
LINE
  5
13D23
330
DCF2
100
AcDbEntity
  8
Ancontension
100
AcDbLine
 10
2190.142995894833
 20
2.398289791998307
 30
0.0
 11
2196.541622219978
 21
1.523848745630743
 31
0.0
  0
ARC
  5
13D24
330
DCF2
100
AcDbEntity
  8
Ancontension
100
AcDbCircle
 10
2207.102993695666
 20
78.80552466271024
 30
0.0
 40
78.0
100
AcDbArc
 50
262.2181222908892
 51
270.0
  0
ARC
  5
13D25
330
DCF2
100
AcDbEntity
  8
Ancontension
100
AcDbCircle
 10
2320.589204689216
 20
78.8055246627099
 30
0.0
 40
78.0
100
AcDbArc
 50
270.0
 51
277.7818777091108
  0
ARC
  5
13D26
330
DCF2
100
AcDbEntity
  8
Ancontension
100
AcDbCircle
 10
2337.346099192443
 20
3.884475867326955
 30
0.0
 40
1.5
100
AcDbArc
 50
277.7818777091108
 51
0.0
  0
LINE
  5
13D27
330
DCF2
100
AcDbEntity
  8
Ancontension
100
AcDbLine
 10
2337.549202490051
 20
2.398289791998536
 30
0.0
 11
2331.150576164906
 21
1.523848745630401
 31
0.0
  0
ARC
  5
13D28
330
DCF2
100
AcDbEntity
  8
Ancontension
100
AcDbCircle
 10
2340.346099192442
 20
4.294458105044667
 30
0.0
 40
1.5
100
AcDbArc
 50
180.0
 51
277.7818777091108
  0
LINE
  5
13D29
330
DCF2
100
AcDbEntity
  8
Ancontension
  6
HIDDEN1_02
100
AcDbLine
 10
2188.846099192442
 20
21.80552466270988
 30
0.0
 11
2254.846099192442
 21
21.80552466270988
 31
0.0
  0
LINE
  5
13D2A
330
DCF2
100
AcDbEntity
  8
Ancontension
  6
HIDDEN1_02
100
AcDbLine
 10
2188.846099192442
 20
57.80552466270989
 30
0.0
 11
2254.846099192442
 21
57.80552466270989
 31
0.0
  0
LINE
  5
13D2B
330
DCF2
100
AcDbEntity
  8
Ancontension
100
AcDbLine
 10
2207.102993695668
 20
78.80552466271012
 30
0.0
 11
2320.589204689218
 21
78.8055246627099
 31
0.0
  0
LINE
  5
13D2C
330
DCF2
100
AcDbEntity
  8
Ancontension
  6
HIDDEN1_02
100
AcDbLine
 10
2153.346099192442
 20
58.80552466271002
 30
0.0
 11
2117.846099192443
 21
58.80552466271002
 31
0.0
  0
LINE
  5
13D2D
330
DCF2
100
AcDbEntity
  8
Ancontension
  6
HIDDEN1_02
100
AcDbLine
 10
2153.346099192442
 20
20.80552466271
 30
0.0
 11
2117.846099192442
 21
20.80552466271
 31
0.0
  0
LINE
  5
13D2E
330
DCF2
100
AcDbEntity
  8
Ancontension
100
AcDbLine
 10
2119.142995894832
 20
67.5098465740989
 30
0.0
 11
2187.142995894832
 21
76.80277729570389
 31
0.0
  0
LINE
  5
13D2F
330
DCF2
100
AcDbEntity
  8
Ancontension
100
AcDbLine
 10
2117.846099192442
 20
13.58738882664954
 30
0.0
 11
2117.846099192442
 21
66.02366049877048
 31
0.0
  0
ARC
  5
13D30
330
DCF2
100
AcDbEntity
  8
Ancontension
100
AcDbCircle
 10
2119.346099192442
 20
13.58738882664954
 30
0.0
 40
1.5
100
AcDbArc
 50
180.0
 51
262.2181222908892
  0
ARC
  5
13D31
330
DCF2
100
AcDbEntity
  8
Ancontension
100
AcDbCircle
 10
2119.346099192442
 20
66.02366049877048
 30
0.0
 40
1.5
100
AcDbArc
 50
97.78187770911079
 51
180.0
  0
ELLIPSE
  5
13D32
330
DCF2
100
AcDbEntity
  8
Ancontension
100
AcDbEllipse
 10
2172.528319092408
 20
64.55426200423882
 30
0.0
 11
3.25
 21
-0.0000000000003216
 31
0.0
210
0.0
220
0.0
230
-1.0
 40
0.7071067811865971
 41
0.0
 42
6.283185307179585
  0
LINE
  5
13D33
330
DCF2
100
AcDbEntity
  8
Ancontension
  6
HIDDEN1_02
100
AcDbLine
 10
2153.346099192442
 20
58.80552466271002
 30
0.0
 11
2153.346099192442
 21
20.80552466271
 31
0.0
  0
LINE
  5
13D34
330
DCF2
100
AcDbEntity
  8
Ancontension
  6
HIDDEN1_02
100
AcDbLine
 10
2188.846099192442
 20
21.80552466271001
 30
0.0
 11
2153.346099192442
 21
21.80552466271001
 31
0.0
  0
ELLIPSE
  5
13D35
330
DCF2
100
AcDbEntity
  8
Ancontension
100
AcDbEllipse
 10
2172.528319092408
 20
15.05678732118122
 30
0.0
 11
3.25
 21
0.0000000000003216
 31
0.0
210
0.0
220
0.0
230
1.0
 40
0.7071067811865971
 41
0.0
 42
6.283185307179585
  0
LINE
  5
13D36
330
DCF2
100
AcDbEntity
  8
Ancontension
  6
HIDDEN1_02
100
AcDbLine
 10
2188.846099192442
 20
57.80552466271
 30
0.0
 11
2153.346099192442
 21
57.80552466271
 31
0.0
  0
ARC
  5
13D37
330
DCF2
100
AcDbEntity
  8
Ancontension
100
AcDbCircle
 10
2187.346099192443
 20
75.31659122037535
 30
0.0
 40
1.5
100
AcDbArc
 50
0.0
 51
97.78187770911079
  0
ARC
  5
13D38
330
DCF2
100
AcDbEntity
  8
Ancontension
100
AcDbCircle
 10
2190.346099192443
 20
75.7265734580933
 30
0.0
 40
1.5
100
AcDbArc
 50
97.78187770911079
 51
180.0
  0
LINE
  5
13D39
330
DCF2
100
AcDbEntity
  8
Ancontension
100
AcDbLine
 10
2190.142995894833
 20
77.2127595334217
 30
0.0
 11
2196.541622219978
 21
78.08720057978939
 31
0.0
  0
ARC
  5
13D3A
330
DCF2
100
AcDbEntity
  8
Ancontension
100
AcDbCircle
 10
2207.102993695668
 20
0.8055246627101269
 30
0.0
 40
78.0
100
AcDbArc
 50
90.0
 51
97.78187770911079
  0
LINE
  5
13D3B
330
DCF2
100
AcDbEntity
  8
Ancontension
  6
HIDDEN1_02
100
AcDbLine
 10
2338.846099192442
 20
57.80552466271
 30
0.0
 11
2374.346099192443
 21
57.80552466271
 31
0.0
  0
LINE
  5
13D3C
330
DCF2
100
AcDbEntity
  8
Ancontension
  6
HIDDEN1_02
100
AcDbLine
 10
2338.846099192442
 20
21.80552466271001
 30
0.0
 11
2374.346099192443
 21
21.80552466271001
 31
0.0
  0
LINE
  5
13D3D
330
DCF2
100
AcDbEntity
  8
Ancontension
100
AcDbLine
 10
2408.549202490052
 20
67.5098465740989
 30
0.0
 11
2340.549202490052
 21
76.80277729570389
 31
0.0
  0
LINE
  5
13D3E
330
DCF2
100
AcDbEntity
  8
Ancontension
  6
HIDDEN1_02
100
AcDbLine
 10
2272.846099192443
 20
57.80552466270989
 30
0.0
 11
2338.846099192442
 21
57.80552466270989
 31
0.0
  0
LINE
  5
13D3F
330
DCF2
100
AcDbEntity
  8
Ancontension
  6
HIDDEN1_02
100
AcDbLine
 10
2272.846099192443
 20
21.80552466270988
 30
0.0
 11
2338.846099192442
 21
21.80552466271001
 31
0.0
  0
LINE
  5
13D40
330
DCF2
100
AcDbEntity
  8
Ancontension
  6
HIDDEN1_02
100
AcDbLine
 10
2272.846099192443
 20
21.80552466270988
 30
0.0
 11
2272.846099192443
 21
23.80552466271001
 31
0.0
  0
LINE
  5
13D41
330
DCF2
100
AcDbEntity
  8
Ancontension
  6
HIDDEN1_02
100
AcDbLine
 10
2254.846099192442
 20
21.80552466270988
 30
0.0
 11
2254.846099192442
 21
23.80552466271001
 31
0.0
  0
LINE
  5
13D42
330
DCF2
100
AcDbEntity
  8
Ancontension
  6
HIDDEN1_02
100
AcDbLine
 10
2254.846099192442
 20
23.8055246627099
 30
0.0
 11
2272.846099192443
 21
23.8055246627099
 31
0.0
  0
LINE
  5
13D43
330
DCF2
100
AcDbEntity
  8
Ancontension
  6
HIDDEN1_02
100
AcDbLine
 10
2272.846099192443
 20
55.80552466270989
 30
0.0
 11
2272.846099192443
 21
57.80552466270979
 31
0.0
  0
LINE
  5
13D44
330
DCF2
100
AcDbEntity
  8
Ancontension
  6
HIDDEN1_02
100
AcDbLine
 10
2254.846099192442
 20
55.80552466270989
 30
0.0
 11
2254.846099192442
 21
57.80552466270979
 31
0.0
  0
LINE
  5
13D45
330
DCF2
100
AcDbEntity
  8
Ancontension
  6
HIDDEN1_02
100
AcDbLine
 10
2254.846099192442
 20
55.80552466270989
 30
0.0
 11
2272.846099192443
 21
55.80552466270989
 31
0.0
  0
ARC
  5
13D46
330
DCF2
100
AcDbEntity
  8
Ancontension
100
AcDbCircle
 10
2320.589204689218
 20
0.8055246627098995
 30
0.0
 40
78.0
100
AcDbArc
 50
82.21812229088921
 51
90.0
  0
ARC
  5
13D47
330
DCF2
100
AcDbEntity
  8
Ancontension
100
AcDbCircle
 10
2337.346099192442
 20
75.72657345809306
 30
0.0
 40
1.5
100
AcDbArc
 50
0.0
 51
82.21812229088921
  0
LINE
  5
13D48
330
DCF2
100
AcDbEntity
  8
Ancontension
100
AcDbLine
 10
2337.549202490051
 20
77.21275953342149
 30
0.0
 11
2331.150576164908
 21
78.08720057978928
 31
0.0
  0
ARC
  5
13D49
330
DCF2
100
AcDbEntity
  8
Ancontension
100
AcDbCircle
 10
2340.346099192442
 20
75.31659122037535
 30
0.0
 40
1.5
100
AcDbArc
 50
82.21812229088921
 51
180.0
  0
ELLIPSE
  5
13D4A
330
DCF2
100
AcDbEntity
  8
Ancontension
100
AcDbEllipse
 10
2355.163879292477
 20
64.55426200423882
 30
0.0
 11
-3.25
 21
-0.0000000000003216
 31
0.0
210
0.0
220
0.0
230
1.0
 40
0.7071067811865971
 41
0.0
 42
6.283185307179585
  0
LINE
  5
13D4B
330
DCF2
100
AcDbEntity
  8
Ancontension
100
AcDbLine
 10
2409.846099192443
 20
13.58738882664954
 30
0.0
 11
2409.846099192443
 21
66.02366049877048
 31
0.0
  0
LINE
  5
13D4C
330
DCF2
100
AcDbEntity
  8
Ancontension
  6
HIDDEN1_02
100
AcDbLine
 10
2374.346099192443
 20
58.80552466271002
 30
0.0
 11
2374.346099192443
 21
20.80552466271
 31
0.0
  0
LINE
  5
13D4D
330
DCF2
100
AcDbEntity
  8
Ancontension
  6
HIDDEN1_02
100
AcDbLine
 10
2374.346099192443
 20
20.80552466271
 30
0.0
 11
2409.846099192443
 21
20.80552466271
 31
0.0
  0
ELLIPSE
  5
13D4E
330
DCF2
100
AcDbEntity
  8
Ancontension
100
AcDbEllipse
 10
2355.163879292477
 20
15.05678732118122
 30
0.0
 11
-3.25
 21
0.0000000000003216
 31
0.0
210
0.0
220
0.0
230
-1.0
 40
0.7071067811865971
 41
0.0
 42
6.283185307179585
  0
ARC
  5
13D4F
330
DCF2
100
AcDbEntity
  8
Ancontension
100
AcDbCircle
 10
2408.346099192443
 20
13.58738882664954
 30
0.0
 40
1.5
100
AcDbArc
 50
277.7818777091108
 51
0.0
  0
LINE
  5
13D50
330
DCF2
100
AcDbEntity
  8
Ancontension
  6
HIDDEN1_02
100
AcDbLine
 10
2374.346099192443
 20
58.80552466271002
 30
0.0
 11
2409.846099192443
 21
58.80552466271002
 31
0.0
  0
ARC
  5
13D51
330
DCF2
100
AcDbEntity
  8
Ancontension
100
AcDbCircle
 10
2408.346099192443
 20
66.02366049877048
 30
0.0
 40
1.5
100
AcDbArc
 50
0.0
 51
82.21812229088921
  0
TEXT
  5
13D52
330
DCF2
100
AcDbEntity
  8
Ancontension
100
AcDbText
 10
2255.300356684644
 20
-20.04465652326996
 30
0.0
 40
10.0
  1
36
  7
ROMANS
100
AcDbText
  0
ARC
  5
13D8F
330
DCF2
100
AcDbEntity
  8
Ancontension
100
AcDbCircle
 10
2000.654352951263
 20
23.11272124414153
 30
0.0
 40
2.0
100
AcDbArc
 50
277.6571812775866
 51
0.0
  0
LINE
  5
13D90
330
DCF2
100
AcDbEntity
  8
Ancontension
100
AcDbLine
 10
1918.654352951262
 20
12.35716986825877
 30
0.0
 11
1918.654352951262
 21
94.7834036085119
 31
0.0
  0
ARC
  5
13D91
330
DCF2
100
AcDbEntity
  8
Ancontension
100
AcDbCircle
 10
1663.654352951263
 20
23.11272124414153
 30
0.0
 40
2.0
100
AcDbArc
 50
180.0
 51
262.3428187224131
  0
LINE
  5
13D92
330
DCF2
100
AcDbEntity
  8
Ancontension
100
AcDbLine
 10
1745.654352951262
 20
12.35716986825877
 30
0.0
 11
1745.654352951262
 21
94.7834036085119
 31
0.0
  0
LINE
  5
13D93
330
DCF2
100
AcDbEntity
  8
Ancontension
100
AcDbLine
 10
1918.654352951262
 20
11.81939229946465
 30
0.0
 11
1918.654352951262
 21
95.32118117730602
 31
0.0
  0
LINE
  5
13D94
330
DCF2
100
AcDbEntity
  8
Ancontension
100
AcDbLine
 10
1745.654352951262
 20
11.81939229946452
 30
0.0
 11
1745.654352951262
 21
95.32118117730611
 31
0.0
  0
LINE
  5
13D95
330
DCF2
100
AcDbEntity
  8
Ancontension
100
AcDbLine
 10
1762.834285179493
 20
8.570286738384766
 30
0.0
 11
1901.47442072304
 21
8.570286738385446
 31
0.0
  0
LINE
  5
13D96
330
DCF2
100
AcDbEntity
  8
Ancontension
100
AcDbLine
 10
1663.387861833486
 20
21.13055513502103
 30
0.0
 11
1743.387861833486
 21
10.37500375913827
 31
0.0
  0
ARC
  5
13D97
330
DCF2
100
AcDbEntity
  8
Ancontension
100
AcDbCircle
 10
1743.654352951263
 20
12.35716986825877
 30
0.0
 40
2.0
100
AcDbArc
 50
262.3428187224131
 51
0.0
  0
ARC
  5
13D98
330
DCF2
100
AcDbEntity
  8
Ancontension
100
AcDbCircle
 10
1762.834285179492
 20
98.57028673838478
 30
0.0
 40
90.0
100
AcDbArc
 50
262.3428187224131
 51
270.0
  0
ARC
  5
13D99
330
DCF2
100
AcDbEntity
  8
Ancontension
100
AcDbCircle
 10
1747.654352951263
 20
11.81939229946452
 30
0.0
 40
2.0
100
AcDbArc
 50
180.0
 51
262.3428187224131
  0
LINE
  5
13D9A
330
DCF2
100
AcDbEntity
  8
Ancontension
100
AcDbLine
 10
1747.387861833486
 20
9.837226190344038
 30
0.0
 11
1750.842184879517
 21
9.372811827962891
 31
0.0
  0
ARC
  5
13D9B
330
DCF2
100
AcDbEntity
  8
Ancontension
100
AcDbCircle
 10
1901.47442072304
 20
98.57028673838543
 30
0.0
 40
90.0
100
AcDbArc
 50
270.0
 51
277.6571812775866
  0
ARC
  5
13D9C
330
DCF2
100
AcDbEntity
  8
Ancontension
100
AcDbCircle
 10
1916.654352951263
 20
11.81939229946465
 30
0.0
 40
2.0
100
AcDbArc
 50
277.6571812775866
 51
0.0
  0
LINE
  5
13D9D
330
DCF2
100
AcDbEntity
  8
Ancontension
100
AcDbLine
 10
1916.92084406904
 20
9.837226190344154
 30
0.0
 11
1913.466521023016
 21
9.372811827963687
 31
0.0
  0
LINE
  5
13D9E
330
DCF2
100
AcDbEntity
  8
Ancontension
100
AcDbLine
 10
2000.92084406904
 20
21.13055513502103
 30
0.0
 11
1920.92084406904
 21
10.37500375913827
 31
0.0
  0
ARC
  5
13D9F
330
DCF2
100
AcDbEntity
  8
Ancontension
100
AcDbCircle
 10
1920.654352951262
 20
12.35716986825877
 30
0.0
 40
2.0
100
AcDbArc
 50
180.0
 51
277.6571812775866
  0
LINE
  5
13DA0
330
DCF2
100
AcDbEntity
  8
Ancontension
  6
HIDDEN1_02
100
AcDbLine
 10
1745.654352951262
 20
32.57028673838488
 30
0.0
 11
1821.654352951263
 21
32.57028673838488
 31
0.0
  0
LINE
  5
13DA1
330
DCF2
100
AcDbEntity
  8
Ancontension
  6
HIDDEN1_02
100
AcDbLine
 10
1745.654352951262
 20
74.57028673838498
 30
0.0
 11
1821.654352951263
 21
74.57028673838488
 31
0.0
  0
LINE
  5
13DA2
330
DCF2
100
AcDbEntity
  8
Ancontension
100
AcDbLine
 10
1762.834285179484
 20
98.57028673838488
 30
0.0
 11
1901.474420723037
 21
98.57028673838543
 31
0.0
  0
LINE
  5
13DA3
330
DCF2
100
AcDbEntity
  8
Ancontension
100
AcDbLine
 10
1663.387861833486
 20
86.0100183417494
 30
0.0
 11
1743.387861833486
 21
96.7655697176324
 31
0.0
  0
LINE
  5
13DA4
330
DCF2
100
AcDbEntity
  8
Ancontension
  6
HIDDEN1_02
100
AcDbLine
 10
1745.654352951262
 20
32.57028673838522
 30
0.0
 11
1703.654352951263
 21
32.57028673838522
 31
0.0
  0
LINE
  5
13DA5
330
DCF2
100
AcDbEntity
  8
Ancontension
  6
HIDDEN1_02
100
AcDbLine
 10
1745.654352951262
 20
74.57028673838522
 30
0.0
 11
1703.654352951263
 21
74.57028673838522
 31
0.0
  0
LINE
  5
13DA6
330
DCF2
100
AcDbEntity
  8
Ancontension
  6
HIDDEN1_02
100
AcDbLine
 10
1703.654352951263
 20
75.07028673838522
 30
0.0
 11
1703.654352951263
 21
32.07028673838522
 31
0.0
  0
LINE
  5
13DA7
330
DCF2
100
AcDbEntity
  8
Ancontension
100
AcDbLine
 10
1661.654352951263
 20
23.11272124414153
 30
0.0
 11
1661.654352951263
 21
84.02785223262913
 31
0.0
  0
LINE
  5
13DA8
330
DCF2
100
AcDbEntity
  8
Ancontension
  6
HIDDEN1_02
100
AcDbLine
 10
1703.654352951263
 20
32.07028673838522
 30
0.0
 11
1661.976634483192
 21
32.07028673838522
 31
0.0
  0
ELLIPSE
  5
13DA9
330
DCF2
100
AcDbEntity
  8
Ancontension
100
AcDbEllipse
 10
1722.871284983421
 20
24.97704923132067
 30
0.0
 11
3.25
 21
0.0
 31
0.0
210
0.0
220
0.0
230
1.0
 40
0.7071067811865445
 41
0.0
 42
6.283185307179585
  0
LINE
  5
13DAA
330
DCF2
100
AcDbEntity
  8
Ancontension
  6
HIDDEN1_02
100
AcDbLine
 10
1703.654352951263
 20
75.07028673838522
 30
0.0
 11
1661.976634483192
 21
75.07028673838522
 31
0.0
  0
ARC
  5
13DAB
330
DCF2
100
AcDbEntity
  8
Ancontension
100
AcDbCircle
 10
1663.654352951263
 20
84.02785223262913
 30
0.0
 40
2.0
100
AcDbArc
 50
97.65718127758676
 51
180.0
  0
ELLIPSE
  5
13DAC
330
DCF2
100
AcDbEntity
  8
Ancontension
100
AcDbEllipse
 10
1722.871284983421
 20
82.16352424545011
 30
0.0
 11
3.25
 21
0.0
 31
0.0
210
0.0
220
0.0
230
-1.0
 40
0.7071067811865445
 41
0.0
 42
6.283185307179585
  0
ARC
  5
13DAD
330
DCF2
100
AcDbEntity
  8
Ancontension
100
AcDbCircle
 10
1743.654352951263
 20
94.7834036085119
 30
0.0
 40
2.0
100
AcDbArc
 50
0.0
 51
97.65718127758676
  0
ARC
  5
13DAE
330
DCF2
100
AcDbEntity
  8
Ancontension
100
AcDbCircle
 10
1762.834285179484
 20
8.570286738384877
 30
0.0
 40
90.0
100
AcDbArc
 50
90.0
 51
97.65718127758676
  0
ARC
  5
13DAF
330
DCF2
100
AcDbEntity
  8
Ancontension
100
AcDbCircle
 10
1747.654352951263
 20
95.32118117730611
 30
0.0
 40
2.0
100
AcDbArc
 50
97.65718127758676
 51
180.0
  0
LINE
  5
13DB0
330
DCF2
100
AcDbEntity
  8
Ancontension
100
AcDbLine
 10
1747.387861833486
 20
97.30334728642665
 30
0.0
 11
1750.842184879508
 21
97.76776164880651
 31
0.0
  0
LINE
  5
13DB1
330
DCF2
100
AcDbEntity
  8
Ancontension
  6
HIDDEN1_02
100
AcDbLine
 10
1842.654352951264
 20
74.57028673838488
 30
0.0
 11
1918.654352951262
 21
74.57028673838488
 31
0.0
  0
LINE
  5
13DB2
330
DCF2
100
AcDbEntity
  8
Ancontension
  6
HIDDEN1_02
100
AcDbLine
 10
1842.654352951264
 20
32.57028673838488
 30
0.0
 11
1918.654352951262
 21
32.57028673838488
 31
0.0
  0
LINE
  5
13DB3
330
DCF2
100
AcDbEntity
  8
Ancontension
  6
HIDDEN1_02
100
AcDbLine
 10
1842.654352951264
 20
32.57028673838488
 30
0.0
 11
1842.654352951264
 21
34.82028673838522
 31
0.0
  0
LINE
  5
13DB4
330
DCF2
100
AcDbEntity
  8
Ancontension
  6
HIDDEN1_02
100
AcDbLine
 10
1821.654352951263
 20
32.57028673838488
 30
0.0
 11
1821.654352951264
 21
34.82028673838522
 31
0.0
  0
LINE
  5
13DB5
330
DCF2
100
AcDbEntity
  8
Ancontension
  6
HIDDEN1_02
100
AcDbLine
 10
1821.654352951263
 20
34.8202867383851
 30
0.0
 11
1842.654352951264
 21
34.82028673838533
 31
0.0
  0
LINE
  5
13DB6
330
DCF2
100
AcDbEntity
  8
Ancontension
  6
HIDDEN1_02
100
AcDbLine
 10
1842.654352951264
 20
72.32028673838522
 30
0.0
 11
1842.654352951264
 21
74.57028673838498
 31
0.0
  0
LINE
  5
13DB7
330
DCF2
100
AcDbEntity
  8
Ancontension
  6
HIDDEN1_02
100
AcDbLine
 10
1821.654352951264
 20
72.32028673838522
 30
0.0
 11
1821.654352951264
 21
74.57028673838488
 31
0.0
  0
LINE
  5
13DB8
330
DCF2
100
AcDbEntity
  8
Ancontension
  6
HIDDEN1_02
100
AcDbLine
 10
1821.654352951263
 20
72.32028673838522
 30
0.0
 11
1842.654352951264
 21
72.32028673838545
 31
0.0
  0
ARC
  5
13DB9
330
DCF2
100
AcDbEntity
  8
Ancontension
100
AcDbCircle
 10
1916.654352951263
 20
95.32118117730602
 30
0.0
 40
2.0
100
AcDbArc
 50
0.0
 51
82.34281872241323
  0
LINE
  5
13DBA
330
DCF2
100
AcDbEntity
  8
Ancontension
100
AcDbLine
 10
1916.92084406904
 20
97.30334728642652
 30
0.0
 11
1913.466521023011
 21
97.76776164880743
 31
0.0
  0
ARC
  5
13DBB
330
DCF2
100
AcDbEntity
  8
Ancontension
100
AcDbCircle
 10
1901.474420723037
 20
8.570286738385446
 30
0.0
 40
90.0
100
AcDbArc
 50
82.34281872241323
 51
90.0
  0
LINE
  5
13DBC
330
DCF2
100
AcDbEntity
  8
Ancontension
100
AcDbLine
 10
2000.92084406904
 20
86.0100183417494
 30
0.0
 11
1920.92084406904
 21
96.7655697176324
 31
0.0
  0
LINE
  5
13DBD
330
DCF2
100
AcDbEntity
  8
Ancontension
  6
HIDDEN1_02
100
AcDbLine
 10
1960.654352951263
 20
32.07028673838522
 30
0.0
 11
2002.332071419334
 21
32.07028673838522
 31
0.0
  0
LINE
  5
13DBE
330
DCF2
100
AcDbEntity
  8
Ancontension
  6
HIDDEN1_02
100
AcDbLine
 10
1960.654352951263
 20
75.07028673838522
 30
0.0
 11
2002.332071419334
 21
75.07028673838522
 31
0.0
  0
LINE
  5
13DBF
330
DCF2
100
AcDbEntity
  8
Ancontension
  6
HIDDEN1_02
100
AcDbLine
 10
1960.654352951263
 20
75.07028673838522
 30
0.0
 11
1960.654352951263
 21
32.07028673838522
 31
0.0
  0
LINE
  5
13DC0
330
DCF2
100
AcDbEntity
  8
Ancontension
  6
HIDDEN1_02
100
AcDbLine
 10
1918.654352951262
 20
32.57028673838522
 30
0.0
 11
1960.654352951263
 21
32.57028673838522
 31
0.0
  0
ELLIPSE
  5
13DC1
330
DCF2
100
AcDbEntity
  8
Ancontension
100
AcDbEllipse
 10
1941.437420919104
 20
24.97704923132067
 30
0.0
 11
-3.25
 21
0.0
 31
0.0
210
0.0
220
0.0
230
-1.0
 40
0.7071067811865445
 41
0.0
 42
6.283185307179585
  0
LINE
  5
13DC2
330
DCF2
100
AcDbEntity
  8
Ancontension
  6
HIDDEN1_02
100
AcDbLine
 10
1918.654352951262
 20
74.57028673838522
 30
0.0
 11
1960.654352951263
 21
74.57028673838522
 31
0.0
  0
ELLIPSE
  5
13DC3
330
DCF2
100
AcDbEntity
  8
Ancontension
100
AcDbEllipse
 10
1941.437420919104
 20
82.16352424545011
 30
0.0
 11
-3.25
 21
0.0
 31
0.0
210
0.0
220
0.0
230
1.0
 40
0.7071067811865445
 41
0.0
 42
6.283185307179585
  0
LINE
  5
13DC4
330
DCF2
100
AcDbEntity
  8
Ancontension
100
AcDbLine
 10
2002.654352951263
 20
23.11272124414153
 30
0.0
 11
2002.654352951263
 21
84.02785223262913
 31
0.0
  0
ARC
  5
13DC5
330
DCF2
100
AcDbEntity
  8
Ancontension
100
AcDbCircle
 10
2000.654352951263
 20
84.02785223262913
 30
0.0
 40
2.0
100
AcDbArc
 50
0.0
 51
82.34281872241323
  0
ARC
  5
13DC6
330
DCF2
100
AcDbEntity
  8
Ancontension
100
AcDbCircle
 10
1920.654352951262
 20
94.7834036085119
 30
0.0
 40
2.0
100
AcDbArc
 50
82.34281872241323
 51
180.0
  0
TEXT
  5
13DC7
330
DCF2
100
AcDbEntity
  8
Ancontension
100
AcDbText
 10
1821.328474186663
 20
-12.27989444759487
 30
0.0
 40
10.0
  1
42
  7
ROMANS
100
AcDbText
  0
ELLIPSE
  5
13E04
330
DCF2
100
AcDbEntity
  8
Ancontension
100
AcDbEllipse
 10
1717.571538168915
 20
-67.61526581613913
 30
0.0
 11
3.25
 21
0.0
 31
0.0
210
0.0
220
0.0
230
-1.0
 40
0.7071067811865445
 41
0.0
 42
6.283185307179585
  0
ELLIPSE
  5
13E05
330
DCF2
100
AcDbEntity
  8
Ancontension
100
AcDbEllipse
 10
1717.571538168915
 20
-130.6404181952689
 30
0.0
 11
3.25
 21
0.0
 31
0.0
210
0.0
220
0.0
230
1.0
 40
0.7071067811865445
 41
0.0
 42
6.283185307179585
  0
LINE
  5
13E06
330
DCF2
100
AcDbEntity
  8
Ancontension
  6
HIDDEN1_02
100
AcDbLine
 10
1754.481895401974
 20
-75.12784200570405
 30
0.0
 11
1707.981895401974
 21
-75.12784200570405
 31
0.0
  0
LINE
  5
13E07
330
DCF2
100
AcDbEntity
  8
Ancontension
100
AcDbLine
 10
1663.216876360988
 20
-61.82891827001282
 30
0.0
 11
1752.216876360989
 21
-49.93064882423738
 31
0.0
  0
LINE
  5
13E08
330
DCF2
100
AcDbEntity
  8
Ancontension
  6
HIDDEN1_02
100
AcDbLine
 10
1754.481895401974
 20
-123.1278420057039
 30
0.0
 11
1707.981895401974
 21
-123.1278420057039
 31
0.0
  0
LINE
  5
13E09
330
DCF2
100
AcDbEntity
  8
Ancontension
100
AcDbLine
 10
1663.216876360989
 20
-136.4267657413952
 30
0.0
 11
1752.216876360989
 21
-148.3250351871708
 31
0.0
  0
LINE
  5
13E0A
330
DCF2
100
AcDbEntity
  8
Ancontension
100
AcDbLine
 10
1661.481895401974
 20
-134.4444022762568
 30
0.0
 11
1661.481895401973
 21
-63.81128173515121
 31
0.0
  0
LINE
  5
13E0B
330
DCF2
100
AcDbEntity
  8
Ancontension
  6
HIDDEN1_02
100
AcDbLine
 10
1707.981895401974
 20
-74.62784200570405
 30
0.0
 11
1707.981895401974
 21
-123.627842005704
 31
0.0
  0
LINE
  5
13E0C
330
DCF2
100
AcDbEntity
  8
Ancontension
  6
HIDDEN1_02
100
AcDbLine
 10
1707.981895401974
 20
-123.627842005704
 30
0.0
 11
1661.481895401974
 21
-123.627842005704
 31
0.0
  0
ARC
  5
13E0D
330
DCF2
100
AcDbEntity
  8
Ancontension
100
AcDbCircle
 10
1663.481895401973
 20
-134.4444022762568
 30
0.0
 40
2.0
100
AcDbArc
 50
180.0
 51
262.3853679237021
  0
LINE
  5
13E0E
330
DCF2
100
AcDbEntity
  8
Ancontension
  6
HIDDEN1_02
100
AcDbLine
 10
1707.981895401974
 20
-74.62784200570405
 30
0.0
 11
1661.481895401974
 21
-74.62784200570405
 31
0.0
  0
ARC
  5
13E0F
330
DCF2
100
AcDbEntity
  8
Ancontension
100
AcDbCircle
 10
1663.481895401972
 20
-63.81128173515121
 30
0.0
 40
2.0
100
AcDbArc
 50
97.61463207629777
 51
180.0
  0
LINE
  5
13E10
330
DCF2
100
AcDbEntity
  8
Ancontension
100
AcDbLine
 10
1952.481895401973
 20
-146.8774254049885
 30
0.0
 11
1952.481895401972
 21
-51.37825860641948
 31
0.0
  0
LINE
  5
13E11
330
DCF2
100
AcDbEntity
  8
Ancontension
100
AcDbLine
 10
1754.481895401974
 20
-146.8774254049885
 30
0.0
 11
1754.481895401975
 21
-51.37825860641959
 31
0.0
  0
LINE
  5
13E12
330
DCF2
100
AcDbEntity
  8
Ancontension
100
AcDbLine
 10
1754.481895401974
 20
-146.3426717220325
 30
0.0
 11
1754.481895401974
 21
-51.91301228937566
 31
0.0
  0
LINE
  5
13E13
330
DCF2
100
AcDbEntity
  8
Ancontension
100
AcDbLine
 10
2045.481895401974
 20
-134.4444022762568
 30
0.0
 11
2045.481895401975
 21
-63.81128173515118
 31
0.0
  0
LINE
  5
13E14
330
DCF2
100
AcDbEntity
  8
Ancontension
  6
HIDDEN1_02
100
AcDbLine
 10
1998.981895401973
 20
-74.627842005704
 30
0.0
 11
1998.981895401973
 21
-123.627842005704
 31
0.0
  0
LINE
  5
13E15
330
DCF2
100
AcDbEntity
  8
Ancontension
100
AcDbLine
 10
1952.481895401973
 20
-146.3426717220325
 30
0.0
 11
1952.481895401972
 21
-51.91301228937561
 31
0.0
  0
LINE
  5
13E16
330
DCF2
100
AcDbEntity
  8
Ancontension
  6
HIDDEN1_02
100
AcDbLine
 10
1998.981895401973
 20
-123.627842005704
 30
0.0
 11
2045.481895401974
 21
-123.627842005704
 31
0.0
  0
LINE
  5
13E17
330
DCF2
100
AcDbEntity
  8
Ancontension
100
AcDbLine
 10
2043.746914442959
 20
-136.4267657413952
 30
0.0
 11
1954.746914442959
 21
-148.3250351871707
 31
0.0
  0
LINE
  5
13E18
330
DCF2
100
AcDbEntity
  8
Ancontension
  6
HIDDEN1_02
100
AcDbLine
 10
1841.481895401974
 20
-120.627842005704
 30
0.0
 11
1865.481895401973
 21
-120.6278420057039
 31
0.0
  0
LINE
  5
13E19
330
DCF2
100
AcDbEntity
  8
Ancontension
100
AcDbLine
 10
1776.296516719508
 20
-150.6278420057039
 30
0.0
 11
1930.667274084439
 21
-150.6278420057039
 31
0.0
  0
ARC
  5
13E1A
330
DCF2
100
AcDbEntity
  8
Ancontension
100
AcDbCircle
 10
1776.296516719508
 20
-47.62784200570393
 30
0.0
 40
103.0
100
AcDbArc
 50
262.3853679237021
 51
270.0
  0
LINE
  5
13E1B
330
DCF2
100
AcDbEntity
  8
Ancontension
  6
HIDDEN1_02
100
AcDbLine
 10
1754.481895401974
 20
-123.1278420057039
 30
0.0
 11
1841.481895401974
 21
-123.1278420057039
 31
0.0
  0
ARC
  5
13E1C
330
DCF2
100
AcDbEntity
  8
Ancontension
100
AcDbCircle
 10
1752.481895401974
 20
-146.3426717220325
 30
0.0
 40
2.0
100
AcDbArc
 50
262.3853679237021
 51
0.0
  0
ARC
  5
13E1D
330
DCF2
100
AcDbEntity
  8
Ancontension
100
AcDbCircle
 10
1756.481895401972
 20
-146.8774254049885
 30
0.0
 40
2.0
100
AcDbArc
 50
180.0
 51
262.3853679237021
  0
LINE
  5
13E1E
330
DCF2
100
AcDbEntity
  8
Ancontension
100
AcDbLine
 10
1756.216876360989
 20
-148.859788870127
 30
0.0
 11
1762.648036108774
 21
-149.7195604603287
 31
0.0
  0
LINE
  5
13E1F
330
DCF2
100
AcDbEntity
  8
Ancontension
  6
HIDDEN1_02
100
AcDbLine
 10
1841.481895401974
 20
-123.1278420057039
 30
0.0
 11
1841.481895401974
 21
-120.627842005704
 31
0.0
  0
ARC
  5
13E20
330
DCF2
100
AcDbEntity
  8
Ancontension
100
AcDbCircle
 10
1950.481895401973
 20
-146.8774254049885
 30
0.0
 40
2.0
100
AcDbArc
 50
277.6146320762977
 51
0.0
  0
ARC
  5
13E21
330
DCF2
100
AcDbEntity
  8
Ancontension
100
AcDbCircle
 10
1930.667274084439
 20
-47.62784200570393
 30
0.0
 40
103.0
100
AcDbArc
 50
270.0
 51
277.6146320762977
  0
LINE
  5
13E22
330
DCF2
100
AcDbEntity
  8
Ancontension
100
AcDbLine
 10
1950.746914442959
 20
-148.859788870127
 30
0.0
 11
1944.315754695175
 21
-149.7195604603287
 31
0.0
  0
LINE
  5
13E23
330
DCF2
100
AcDbEntity
  8
Ancontension
  6
HIDDEN1_02
100
AcDbLine
 10
1865.481895401973
 20
-123.1278420057039
 30
0.0
 11
1952.481895401973
 21
-123.1278420057039
 31
0.0
  0
LINE
  5
13E24
330
DCF2
100
AcDbEntity
  8
Ancontension
  6
HIDDEN1_02
100
AcDbLine
 10
1865.481895401972
 20
-123.1278420057039
 30
0.0
 11
1865.481895401972
 21
-120.627842005704
 31
0.0
  0
ARC
  5
13E25
330
DCF2
100
AcDbEntity
  8
Ancontension
100
AcDbCircle
 10
1954.481895401974
 20
-146.3426717220325
 30
0.0
 40
2.0
100
AcDbArc
 50
180.0
 51
277.6146320762977
  0
LINE
  5
13E26
330
DCF2
100
AcDbEntity
  8
Ancontension
  6
HIDDEN1_02
100
AcDbLine
 10
1952.481895401973
 20
-123.1278420057039
 30
0.0
 11
1998.981895401973
 21
-123.1278420057039
 31
0.0
  0
ELLIPSE
  5
13E27
330
DCF2
100
AcDbEntity
  8
Ancontension
100
AcDbEllipse
 10
1989.392252635033
 20
-130.6404181952689
 30
0.0
 11
-3.25
 21
0.0
 31
0.0
210
0.0
220
0.0
230
-1.0
 40
0.7071067811865445
 41
0.0
 42
6.283185307179585
  0
ARC
  5
13E28
330
DCF2
100
AcDbEntity
  8
Ancontension
100
AcDbCircle
 10
2043.481895401974
 20
-134.4444022762568
 30
0.0
 40
2.0
100
AcDbArc
 50
277.6146320762977
 51
0.0
  0
LINE
  5
13E29
330
DCF2
100
AcDbEntity
  8
Ancontension
  6
HIDDEN1_02
100
AcDbLine
 10
1998.981895401973
 20
-74.627842005704
 30
0.0
 11
2045.481895401974
 21
-74.627842005704
 31
0.0
  0
LINE
  5
13E2A
330
DCF2
100
AcDbEntity
  8
Ancontension
100
AcDbLine
 10
2043.74691444296
 20
-61.82891827001276
 30
0.0
 11
1954.746914442958
 21
-49.93064882423731
 31
0.0
  0
LINE
  5
13E2B
330
DCF2
100
AcDbEntity
  8
Ancontension
  6
HIDDEN1_02
100
AcDbLine
 10
1841.481895401974
 20
-77.62784200570405
 30
0.0
 11
1865.481895401973
 21
-77.62784200570393
 31
0.0
  0
LINE
  5
13E2C
330
DCF2
100
AcDbEntity
  8
Ancontension
100
AcDbLine
 10
1776.296516719511
 20
-47.62784200570393
 30
0.0
 11
1930.667274084435
 21
-47.62784200570393
 31
0.0
  0
ARC
  5
13E2D
330
DCF2
100
AcDbEntity
  8
Ancontension
100
AcDbCircle
 10
1776.296516719511
 20
-150.6278420057039
 30
0.0
 40
103.0
100
AcDbArc
 50
90.0
 51
97.61463207629777
  0
LINE
  5
13E2E
330
DCF2
100
AcDbEntity
  8
Ancontension
  6
HIDDEN1_02
100
AcDbLine
 10
1754.481895401974
 20
-75.12784200570405
 30
0.0
 11
1841.481895401974
 21
-75.12784200570405
 31
0.0
  0
ARC
  5
13E2F
330
DCF2
100
AcDbEntity
  8
Ancontension
100
AcDbCircle
 10
1752.481895401974
 20
-51.91301228937566
 30
0.0
 40
2.0
100
AcDbArc
 50
0.0
 51
97.61463207629777
  0
ARC
  5
13E30
330
DCF2
100
AcDbEntity
  8
Ancontension
100
AcDbCircle
 10
1756.481895401975
 20
-51.37825860641959
 30
0.0
 40
2.0
100
AcDbArc
 50
97.61463207629777
 51
180.0
  0
LINE
  5
13E31
330
DCF2
100
AcDbEntity
  8
Ancontension
100
AcDbLine
 10
1756.21687636099
 20
-49.39589514128119
 30
0.0
 11
1762.648036108776
 21
-48.53612355107912
 31
0.0
  0
LINE
  5
13E32
330
DCF2
100
AcDbEntity
  8
Ancontension
  6
HIDDEN1_02
100
AcDbLine
 10
1841.481895401974
 20
-77.62784200570405
 30
0.0
 11
1841.481895401974
 21
-75.12784200570405
 31
0.0
  0
LINE
  5
13E33
330
DCF2
100
AcDbEntity
  8
Ancontension
  6
HIDDEN1_02
100
AcDbLine
 10
1865.481895401973
 20
-75.12784200570405
 30
0.0
 11
1952.481895401973
 21
-75.12784200570405
 31
0.0
  0
LINE
  5
13E34
330
DCF2
100
AcDbEntity
  8
Ancontension
  6
HIDDEN1_02
100
AcDbLine
 10
1865.481895401972
 20
-77.62784200570405
 30
0.0
 11
1865.481895401973
 21
-75.12784200570405
 31
0.0
  0
ARC
  5
13E35
330
DCF2
100
AcDbEntity
  8
Ancontension
100
AcDbCircle
 10
1950.481895401972
 20
-51.37825860641948
 30
0.0
 40
2.0
100
AcDbArc
 50
0.0
 51
82.38536792370224
  0
ARC
  5
13E36
330
DCF2
100
AcDbEntity
  8
Ancontension
100
AcDbCircle
 10
1930.667274084435
 20
-150.6278420057039
 30
0.0
 40
103.0
100
AcDbArc
 50
82.38536792370224
 51
90.0
  0
LINE
  5
13E37
330
DCF2
100
AcDbEntity
  8
Ancontension
100
AcDbLine
 10
1950.746914442959
 20
-49.39589514128107
 30
0.0
 11
1944.31575469517
 21
-48.53612355107912
 31
0.0
  0
LINE
  5
13E38
330
DCF2
100
AcDbEntity
  8
Ancontension
  6
HIDDEN1_02
100
AcDbLine
 10
1952.481895401973
 20
-75.127842005704
 30
0.0
 11
1998.981895401973
 21
-75.127842005704
 31
0.0
  0
ARC
  5
13E39
330
DCF2
100
AcDbEntity
  8
Ancontension
100
AcDbCircle
 10
1954.481895401974
 20
-51.91301228937561
 30
0.0
 40
2.0
100
AcDbArc
 50
82.38536792370224
 51
180.0
  0
ELLIPSE
  5
13E3A
330
DCF2
100
AcDbEntity
  8
Ancontension
100
AcDbEllipse
 10
1989.392252635033
 20
-67.61526581613907
 30
0.0
 11
-3.25
 21
0.0
 31
0.0
210
0.0
220
0.0
230
1.0
 40
0.7071067811865445
 41
0.0
 42
6.283185307179585
  0
ARC
  5
13E3B
330
DCF2
100
AcDbEntity
  8
Ancontension
100
AcDbCircle
 10
2043.481895401975
 20
-63.81128173515118
 30
0.0
 40
2.0
100
AcDbArc
 50
0.0
 51
82.38536792370224
  0
TEXT
  5
13E3C
330
DCF2
100
AcDbEntity
  8
Ancontension
100
AcDbText
 10
1844.936152894177
 20
-171.4780231916838
 30
0.0
 40
10.0
  1
48
  7
ROMANS
100
AcDbText
  0
LINE
  5
13E79
330
DCF2
100
AcDbEntity
  8
Ancontension
  6
HIDDEN1_02
100
AcDbLine
 10
1769.344338561388
 20
-230.3204542334666
 30
0.0
 11
1715.344338561389
 21
-230.3204542334666
 31
0.0
  0
LINE
  5
13E7A
330
DCF2
100
AcDbEntity
  8
Ancontension
100
AcDbLine
 10
1663.511224664167
 20
-214.5491229058567
 30
0.0
 11
1766.511224664168
 21
-200.701350509408
 31
0.0
  0
LINE
  5
13E7B
330
DCF2
100
AcDbEntity
  8
Ancontension
  6
HIDDEN1_02
100
AcDbLine
 10
1769.344338561388
 20
-286.3204542334667
 30
0.0
 11
1715.344338561389
 21
-286.3204542334667
 31
0.0
  0
LINE
  5
13E7C
330
DCF2
100
AcDbEntity
  8
Ancontension
100
AcDbLine
 10
1663.511224664167
 20
-302.0917855610766
 30
0.0
 11
1766.511224664168
 21
-315.9395579575256
 31
0.0
  0
LINE
  5
13E7D
330
DCF2
100
AcDbEntity
  8
Ancontension
  6
HIDDEN1_02
100
AcDbLine
 10
1715.344338561389
 20
-229.8204542334666
 30
0.0
 11
1715.344338561389
 21
-286.8204542334666
 31
0.0
  0
LINE
  5
13E7E
330
DCF2
100
AcDbEntity
  8
Ancontension
100
AcDbLine
 10
1661.344338561388
 20
-299.6140779246761
 30
0.0
 11
1661.344338561388
 21
-217.0268305422573
 31
0.0
  0
LINE
  5
13E7F
330
DCF2
100
AcDbEntity
  8
Ancontension
  6
HIDDEN1_02
100
AcDbLine
 10
1715.344338561389
 20
-286.8204542334666
 30
0.0
 11
1661.344338561388
 21
-286.8204542334666
 31
0.0
  0
ARC
  5
13E80
330
DCF2
100
AcDbEntity
  8
Ancontension
100
AcDbCircle
 10
1663.844338561387
 20
-299.6140779246761
 30
0.0
 40
2.5
100
AcDbArc
 50
180.0
 51
262.3428187224131
  0
ELLIPSE
  5
13E81
330
DCF2
100
AcDbEntity
  8
Ancontension
100
AcDbEllipse
 10
1751.280280303237
 20
-297.6153599997449
 30
0.0
 11
4.25
 21
0.0
 31
0.0
210
0.0
220
0.0
230
1.0
 40
0.70710678118652
 41
0.0
 42
6.283185307179585
  0
LINE
  5
13E82
330
DCF2
100
AcDbEntity
  8
Ancontension
  6
HIDDEN1_02
100
AcDbLine
 10
1715.344338561389
 20
-229.8204542334666
 30
0.0
 11
1661.344338561388
 21
-229.8204542334666
 31
0.0
  0
ARC
  5
13E83
330
DCF2
100
AcDbEntity
  8
Ancontension
100
AcDbCircle
 10
1663.844338561387
 20
-217.0268305422573
 30
0.0
 40
2.5
100
AcDbArc
 50
97.65718127758674
 51
180.0
  0
ELLIPSE
  5
13E84
330
DCF2
100
AcDbEntity
  8
Ancontension
100
AcDbEllipse
 10
1751.280280303237
 20
-219.0255484671884
 30
0.0
 11
4.25
 21
0.0
 31
0.0
210
0.0
220
0.0
230
-1.0
 40
0.70710678118652
 41
0.0
 42
6.283185307179585
  0
LINE
  5
13E85
330
DCF2
100
AcDbEntity
  8
Ancontension
100
AcDbLine
 10
1999.344338561387
 20
-314.1340722821181
 30
0.0
 11
1999.344338561387
 21
-202.5068361848163
 31
0.0
  0
LINE
  5
13E86
330
DCF2
100
AcDbEntity
  8
Ancontension
100
AcDbLine
 10
1769.34433856139
 20
-314.1340722821179
 30
0.0
 11
1769.344338561388
 21
-202.5068361848163
 31
0.0
  0
LINE
  5
13E87
330
DCF2
100
AcDbEntity
  8
Ancontension
100
AcDbLine
 10
2107.344338561389
 20
-299.6140779246766
 30
0.0
 11
2107.344338561389
 21
-217.0268305422577
 31
0.0
  0
LINE
  5
13E88
330
DCF2
100
AcDbEntity
  8
Ancontension
  6
HIDDEN1_02
100
AcDbLine
 10
2053.344338561387
 20
-229.8204542334671
 30
0.0
 11
2053.344338561387
 21
-286.8204542334671
 31
0.0
  0
LINE
  5
13E89
330
DCF2
100
AcDbEntity
  8
Ancontension
100
AcDbLine
 10
1999.344338561387
 20
-203.179058145809
 30
0.0
 11
1999.344338561387
 21
-313.4618503211253
 31
0.0
  0
LINE
  5
13E8A
330
DCF2
100
AcDbEntity
  8
Ancontension
100
AcDbLine
 10
1769.344338561388
 20
-203.1790581458086
 30
0.0
 11
1769.34433856139
 21
-313.461850321125
 31
0.0
  0
ARC
  5
13E8B
330
DCF2
100
AcDbEntity
  8
Ancontension
100
AcDbCircle
 10
2001.844338561387
 20
-313.4618503211253
 30
0.0
 40
2.5
100
AcDbArc
 50
180.0
 51
277.6571812775866
  0
LINE
  5
13E8C
330
DCF2
100
AcDbEntity
  8
Ancontension
  6
HIDDEN1_02
100
AcDbLine
 10
1870.344338561388
 20
-283.5704542334659
 30
0.0
 11
1898.344338561388
 21
-283.570454233466
 31
0.0
  0
LINE
  5
13E8D
330
DCF2
100
AcDbEntity
  8
Ancontension
100
AcDbLine
 10
1796.036845720928
 20
-318.8204542334667
 30
0.0
 11
1972.651831401849
 21
-318.8204542334667
 31
0.0
  0
ARC
  5
13E8E
330
DCF2
100
AcDbEntity
  8
Ancontension
100
AcDbCircle
 10
1766.844338561389
 20
-313.461850321125
 30
0.0
 40
2.5
100
AcDbArc
 50
262.3428187224131
 51
0.0
  0
LINE
  5
13E8F
330
DCF2
100
AcDbEntity
  8
Ancontension
100
AcDbLine
 10
1771.511224664168
 20
-316.6117799185186
 30
0.0
 11
1779.914133095405
 21
-317.741503835256
 31
0.0
  0
ARC
  5
13E90
330
DCF2
100
AcDbEntity
  8
Ancontension
100
AcDbCircle
 10
1796.036845720928
 20
-197.8204542334666
 30
0.0
 40
121.0
100
AcDbArc
 50
262.3428187224131
 51
270.0
  0
ARC
  5
13E91
330
DCF2
100
AcDbEntity
  8
Ancontension
100
AcDbCircle
 10
1771.84433856139
 20
-314.1340722821179
 30
0.0
 40
2.5
100
AcDbArc
 50
180.0
 51
262.3428187224131
  0
LINE
  5
13E92
330
DCF2
100
AcDbEntity
  8
Ancontension
  6
HIDDEN1_02
100
AcDbLine
 10
1769.344338561388
 20
-286.3204542334646
 30
0.0
 11
1870.344338561388
 21
-286.3204542334646
 31
0.0
  0
LINE
  5
13E93
330
DCF2
100
AcDbEntity
  8
Ancontension
  6
HIDDEN1_02
100
AcDbLine
 10
1870.344338561388
 20
-286.3204542334647
 30
0.0
 11
1870.344338561389
 21
-283.570454233466
 31
0.0
  0
ARC
  5
13E94
330
DCF2
100
AcDbEntity
  8
Ancontension
100
AcDbCircle
 10
1996.844338561387
 20
-314.1340722821181
 30
0.0
 40
2.5
100
AcDbArc
 50
277.6571812775866
 51
0.0
  0
ARC
  5
13E95
330
DCF2
100
AcDbEntity
  8
Ancontension
100
AcDbCircle
 10
1972.651831401849
 20
-197.8204542334666
 30
0.0
 40
121.0
100
AcDbArc
 50
270.0
 51
277.6571812775866
  0
LINE
  5
13E96
330
DCF2
100
AcDbEntity
  8
Ancontension
100
AcDbLine
 10
1997.177452458609
 20
-316.6117799185186
 30
0.0
 11
1988.774544027372
 21
-317.741503835256
 31
0.0
  0
LINE
  5
13E97
330
DCF2
100
AcDbEntity
  8
Ancontension
  6
HIDDEN1_02
100
AcDbLine
 10
1898.344338561388
 20
-286.3204542334646
 30
0.0
 11
1999.344338561387
 21
-286.3204542334646
 31
0.0
  0
LINE
  5
13E98
330
DCF2
100
AcDbEntity
  8
Ancontension
  6
HIDDEN1_02
100
AcDbLine
 10
1898.344338561388
 20
-286.3204542334646
 30
0.0
 11
1898.344338561388
 21
-283.5704542334663
 31
0.0
  0
LINE
  5
13E99
330
DCF2
100
AcDbEntity
  8
Ancontension
100
AcDbLine
 10
2105.17745245861
 20
-302.0917855610771
 30
0.0
 11
2002.177452458608
 21
-315.939557957526
 31
0.0
  0
LINE
  5
13E9A
330
DCF2
100
AcDbEntity
  8
Ancontension
  6
HIDDEN1_02
100
AcDbLine
 10
2053.344338561387
 20
-286.8204542334671
 30
0.0
 11
2107.344338561387
 21
-286.8204542334671
 31
0.0
  0
LINE
  5
13E9B
330
DCF2
100
AcDbEntity
  8
Ancontension
  6
HIDDEN1_02
100
AcDbLine
 10
1999.344338561387
 20
-286.3204542334671
 30
0.0
 11
2053.344338561387
 21
-286.3204542334671
 31
0.0
  0
ELLIPSE
  5
13E9C
330
DCF2
100
AcDbEntity
  8
Ancontension
100
AcDbEllipse
 10
2017.408396819541
 20
-297.6153599997453
 30
0.0
 11
-4.25
 21
0.0
 31
0.0
210
0.0
220
0.0
230
-1.0
 40
0.70710678118652
 41
0.0
 42
6.283185307179585
  0
ARC
  5
13E9D
330
DCF2
100
AcDbEntity
  8
Ancontension
100
AcDbCircle
 10
2104.844338561388
 20
-299.6140779246766
 30
0.0
 40
2.5
100
AcDbArc
 50
277.6571812775866
 51
0.0
  0
ARC
  5
13E9E
330
DCF2
100
AcDbEntity
  8
Ancontension
100
AcDbCircle
 10
2001.844338561388
 20
-203.179058145809
 30
0.0
 40
2.5
100
AcDbArc
 50
82.34281872241325
 51
180.0
  0
LINE
  5
13E9F
330
DCF2
100
AcDbEntity
  8
Ancontension
  6
HIDDEN1_02
100
AcDbLine
 10
1870.344338561389
 20
-233.0704542334659
 30
0.0
 11
1898.344338561388
 21
-233.0704542334661
 31
0.0
  0
LINE
  5
13EA0
330
DCF2
100
AcDbEntity
  8
Ancontension
100
AcDbLine
 10
1796.036845720932
 20
-197.8204542334667
 30
0.0
 11
1972.651831401845
 21
-197.8204542334667
 31
0.0
  0
LINE
  5
13EA1
330
DCF2
100
AcDbEntity
  8
Ancontension
  6
HIDDEN1_02
100
AcDbLine
 10
1769.344338561388
 20
-230.3204542334645
 30
0.0
 11
1870.344338561389
 21
-230.3204542334643
 31
0.0
  0
ARC
  5
13EA2
330
DCF2
100
AcDbEntity
  8
Ancontension
100
AcDbCircle
 10
1766.844338561389
 20
-203.1790581458086
 30
0.0
 40
2.5
100
AcDbArc
 50
0.0
 51
97.65718127758674
  0
LINE
  5
13EA3
330
DCF2
100
AcDbEntity
  8
Ancontension
100
AcDbLine
 10
1771.511224664168
 20
-200.0291285484157
 30
0.0
 11
1779.91413309541
 21
-198.8994046316775
 31
0.0
  0
ARC
  5
13EA4
330
DCF2
100
AcDbEntity
  8
Ancontension
100
AcDbCircle
 10
1771.844338561388
 20
-202.5068361848163
 30
0.0
 40
2.5
100
AcDbArc
 50
97.65718127758674
 51
180.0
  0
ARC
  5
13EA5
330
DCF2
100
AcDbEntity
  8
Ancontension
100
AcDbCircle
 10
1796.036845720933
 20
-318.8204542334668
 30
0.0
 40
121.0
100
AcDbArc
 50
90.0
 51
97.65718127758674
  0
LINE
  5
13EA6
330
DCF2
100
AcDbEntity
  8
Ancontension
  6
HIDDEN1_02
100
AcDbLine
 10
1870.344338561389
 20
-233.0704542334659
 30
0.0
 11
1870.344338561389
 21
-230.3204542334643
 31
0.0
  0
LINE
  5
13EA7
330
DCF2
100
AcDbEntity
  8
Ancontension
  6
HIDDEN1_02
100
AcDbLine
 10
1898.344338561388
 20
-230.3204542334643
 30
0.0
 11
1999.344338561389
 21
-230.3204542334645
 31
0.0
  0
LINE
  5
13EA8
330
DCF2
100
AcDbEntity
  8
Ancontension
  6
HIDDEN1_02
100
AcDbLine
 10
1898.344338561388
 20
-233.0704542334663
 30
0.0
 11
1898.344338561388
 21
-230.3204542334643
 31
0.0
  0
ARC
  5
13EA9
330
DCF2
100
AcDbEntity
  8
Ancontension
100
AcDbCircle
 10
1996.844338561388
 20
-202.5068361848163
 30
0.0
 40
2.5
100
AcDbArc
 50
0.0
 51
82.34281872241325
  0
ARC
  5
13EAA
330
DCF2
100
AcDbEntity
  8
Ancontension
100
AcDbCircle
 10
1972.651831401845
 20
-318.8204542334668
 30
0.0
 40
121.0
100
AcDbArc
 50
82.34281872241325
 51
90.0
  0
LINE
  5
13EAB
330
DCF2
100
AcDbEntity
  8
Ancontension
100
AcDbLine
 10
1997.177452458609
 20
-200.0291285484157
 30
0.0
 11
1988.774544027368
 21
-198.8994046316775
 31
0.0
  0
LINE
  5
13EAC
330
DCF2
100
AcDbEntity
  8
Ancontension
  6
HIDDEN1_02
100
AcDbLine
 10
2053.344338561387
 20
-229.8204542334671
 30
0.0
 11
2107.344338561387
 21
-229.8204542334671
 31
0.0
  0
LINE
  5
13EAD
330
DCF2
100
AcDbEntity
  8
Ancontension
100
AcDbLine
 10
2105.17745245861
 20
-214.549122905857
 30
0.0
 11
2002.17745245861
 21
-200.7013505094084
 31
0.0
  0
LINE
  5
13EAE
330
DCF2
100
AcDbEntity
  8
Ancontension
  6
HIDDEN1_02
100
AcDbLine
 10
1999.344338561387
 20
-230.3204542334671
 30
0.0
 11
2053.344338561387
 21
-230.3204542334671
 31
0.0
  0
ELLIPSE
  5
13EAF
330
DCF2
100
AcDbEntity
  8
Ancontension
100
AcDbEllipse
 10
2017.408396819541
 20
-219.0255484671888
 30
0.0
 11
-4.25
 21
0.0
 31
0.0
210
0.0
220
0.0
230
1.0
 40
0.70710678118652
 41
0.0
 42
6.283185307179585
  0
ARC
  5
13EB0
330
DCF2
100
AcDbEntity
  8
Ancontension
100
AcDbCircle
 10
2104.844338561388
 20
-217.0268305422577
 30
0.0
 40
2.5
100
AcDbArc
 50
0.0
 51
82.34281872241325
  0
TEXT
  5
13EB1
330
DCF2
100
AcDbEntity
  8
Ancontension
100
AcDbText
 10
1875.798596053591
 20
-339.6706354194467
 30
0.0
 40
10.0
  1
56
  7
ROMANS
100
AcDbText
  0
LINE
  5
13FF8
330
DCF2
100
AcDbEntity
  8
Ancontension
100
AcDbLine
 10
2631.687313901311
 20
252.1501593995763
 30
0.0
 11
2628.397229667566
 21
252.6021335079926
 31
0.0
  0
LINE
  5
13FFC
330
DCF2
100
AcDbEntity
  8
Ancontension
100
AcDbLine
 10
2631.687313901311
 20
218.7054160874722
 30
0.0
 11
2628.397229667569
 21
218.253441979056
 31
0.0
  0
LINE
  5
13FFD
330
DCF2
100
AcDbEntity
  8
Ancontension
  6
HIDDEN1_01
100
AcDbLine
 10
2601.335241569952
 20
227.4277877435249
 30
0.0
 11
2632.335241569952
 21
227.4277877435252
 31
0.0
  0
LINE
  5
13FFE
330
DCF2
100
AcDbEntity
  8
Ancontension
  6
HIDDEN1_01
100
AcDbLine
 10
2601.335241569952
 20
243.427787743525
 30
0.0
 11
2632.335241569952
 21
243.427787743525
 31
0.0
  0
LINE
  5
13FFF
330
DCF2
100
AcDbEntity
  8
Ancontension
  6
HIDDEN1_01
100
AcDbLine
 10
2601.335241569952
 20
180.4814590460831
 30
0.0
 11
2632.335241569952
 21
180.4814590460831
 31
0.0
  0
LINE
  5
14000
330
DCF2
100
AcDbEntity
  8
Ancontension
  6
HIDDEN1_01
100
AcDbLine
 10
2601.335241569952
 20
164.4814590460832
 30
0.0
 11
2632.335241569952
 21
164.4814590460834
 31
0.0
  0
LINE
  5
14001
330
DCF2
100
AcDbEntity
  8
Ancontension
100
AcDbLine
 10
2631.687313901311
 20
155.7590873900304
 30
0.0
 11
2628.397229667569
 21
155.3071132816143
 31
0.0
  0
LINE
  5
14002
330
DCF2
100
AcDbEntity
  8
Ancontension
100
AcDbLine
 10
2631.687313901311
 20
189.2038307021345
 30
0.0
 11
2628.397229667566
 21
189.6558048105509
 31
0.0
  0
LINE
  5
14004
330
DCF2
100
AcDbEntity
  8
Ancontension
100
AcDbLine
 10
2563.335241569951
 20
188.4608090071818
 30
0.0
 11
2563.335241569951
 21
156.5021090849836
 31
0.0
  0
LINE
  5
14005
330
DCF2
100
AcDbEntity
  8
Ancontension
100
AcDbLine
 10
2563.335241569951
 20
188.4608090071818
 30
0.0
 11
2563.335241569951
 21
156.5021090849836
 31
0.0
  0
LINE
  5
14006
330
DCF2
100
AcDbEntity
  8
Ancontension
100
AcDbLine
 10
2530.983169238591
 20
160.2924502215221
 30
0.0
 11
2562.483169238591
 21
155.9651493369166
 31
0.0
  0
LINE
  5
14007
330
DCF2
100
AcDbEntity
  8
Ancontension
100
AcDbLine
 10
2572.036628935814
 20
154.9814590460833
 30
0.0
 11
2623.633854204085
 21
154.9814590460826
 31
0.0
  0
ARC
  5
14008
330
DCF2
100
AcDbEntity
  8
Ancontension
100
AcDbCircle
 10
2562.585241569951
 20
156.7081710318694
 30
0.0
 40
0.75
100
AcDbArc
 50
262.1779734234495
 51
0.0000000000065138
  0
ARC
  5
14009
330
DCF2
100
AcDbEntity
  8
Ancontension
100
AcDbCircle
 10
2572.036628935814
 20
189.9814590460831
 30
0.0
 40
35.0
100
AcDbArc
 50
262.1779734234495
 51
270.0
  0
ARC
  5
1400A
330
DCF2
100
AcDbEntity
  8
Ancontension
100
AcDbCircle
 10
2564.085241569951
 20
156.5021090849836
 30
0.0
 40
0.75
100
AcDbArc
 50
180.0
 51
262.1779734234495
  0
LINE
  5
1400B
330
DCF2
100
AcDbEntity
  8
Ancontension
100
AcDbLine
 10
2563.983169238591
 20
155.7590873900306
 30
0.0
 11
2567.273253472331
 21
155.3071132816151
 31
0.0
  0
ARC
  5
1400C
330
DCF2
100
AcDbEntity
  8
Ancontension
100
AcDbCircle
 10
2623.633854204086
 20
189.9814590460825
 30
0.0
 40
35.0
100
AcDbArc
 50
270.0
 51
277.8220265765245
  0
LINE
  5
14010
330
DCF2
100
AcDbEntity
  8
Ancontension
100
AcDbLine
 10
2623.633854204084
 20
252.9277877435247
 30
0.0
 11
2604.199202600631
 21
272.3624393469774
 31
0.0
  0
LINE
  5
14011
330
DCF2
100
AcDbEntity
  8
Ancontension
100
AcDbLine
 10
2572.03662893582
 20
252.9277877435247
 30
0.0
 11
2591.471280539273
 21
272.3624393469774
 31
0.0
  0
LINE
  5
14012
330
DCF2
100
AcDbEntity
  8
Ancontension
100
AcDbLine
 10
2530.983169238591
 20
247.6167965680851
 30
0.0
 11
2562.483169238591
 21
251.9440974526904
 31
0.0
  0
LINE
  5
14013
330
DCF2
100
AcDbEntity
  8
Ancontension
100
AcDbLine
 10
2530.983169238591
 20
223.2387789189638
 30
0.0
 11
2562.483169238591
 21
218.9114780343583
 31
0.0
  0
LINE
  5
14014
330
DCF2
100
AcDbEntity
  8
Ancontension
  6
HIDDEN1_01
100
AcDbLine
 10
2563.335241569951
 20
243.4277877435246
 30
0.0
 11
2546.835241569951
 21
243.4277877435246
 31
0.0
  0
LINE
  5
14015
330
DCF2
100
AcDbEntity
  8
Ancontension
  6
HIDDEN1_01
100
AcDbLine
 10
2563.335241569951
 20
227.4277877435247
 30
0.0
 11
2546.835241569951
 21
227.4277877435247
 31
0.0
  0
LINE
  5
14016
330
DCF2
100
AcDbEntity
  8
Ancontension
  6
HIDDEN1_01
100
AcDbLine
 10
2563.335241569951
 20
164.4814590460829
 30
0.0
 11
2546.835241569951
 21
164.4814590460829
 31
0.0
  0
LINE
  5
14017
330
DCF2
100
AcDbEntity
  8
Ancontension
  6
HIDDEN1_01
100
AcDbLine
 10
2563.335241569951
 20
180.4814590460827
 30
0.0
 11
2546.835241569951
 21
180.4814590460827
 31
0.0
  0
LINE
  5
14018
330
DCF2
100
AcDbEntity
  8
Ancontension
100
AcDbLine
 10
2530.983169238591
 20
184.6704678706437
 30
0.0
 11
2562.483169238591
 21
188.9977687552491
 31
0.0
  0
LINE
  5
14019
330
DCF2
100
AcDbEntity
  8
Ancontension
  6
HIDDEN1_01
100
AcDbLine
 10
2546.835241569951
 20
180.9814590460828
 30
0.0
 11
2546.835241569951
 21
163.9814590460829
 31
0.0
  0
LINE
  5
1401A
330
DCF2
100
AcDbEntity
  8
Ancontension
100
AcDbLine
 10
2530.335241569951
 20
183.9274461756907
 30
0.0
 11
2530.335241569951
 21
161.035471916475
 31
0.0
  0
LINE
  5
1401B
330
DCF2
100
AcDbEntity
  8
Ancontension
  6
HIDDEN1_01
100
AcDbLine
 10
2546.835241569951
 20
163.9814590460829
 30
0.0
 11
2530.335241569951
 21
163.9814590460829
 31
0.0
  0
ARC
  5
1401C
330
DCF2
100
AcDbEntity
  8
Ancontension
100
AcDbCircle
 10
2531.085241569951
 20
161.035471916475
 30
0.0
 40
0.75
100
AcDbArc
 50
180.0
 51
262.1779734234495
  0
LINE
  5
1401D
330
DCF2
100
AcDbEntity
  8
Ancontension
  6
HIDDEN1_01
100
AcDbLine
 10
2546.835241569951
 20
180.9814590460828
 30
0.0
 11
2530.335241569951
 21
180.9814590460828
 31
0.0
  0
ARC
  5
1401E
330
DCF2
100
AcDbEntity
  8
Ancontension
100
AcDbCircle
 10
2531.085241569951
 20
183.9274461756907
 30
0.0
 40
0.75
100
AcDbArc
 50
97.82202657652458
 51
180.0
  0
LINE
  5
1401F
330
DCF2
100
AcDbEntity
  8
Ancontension
  6
HIDDEN1_01
100
AcDbLine
 10
2546.835241569951
 20
243.9277877435247
 30
0.0
 11
2546.835241569951
 21
226.9277877435246
 31
0.0
  0
LINE
  5
14020
330
DCF2
100
AcDbEntity
  8
Ancontension
100
AcDbLine
 10
2530.335241569951
 20
246.8737748731323
 30
0.0
 11
2530.335241569951
 21
223.9818006139166
 31
0.0
  0
LINE
  5
14021
330
DCF2
100
AcDbEntity
  8
Ancontension
  6
HIDDEN1_01
100
AcDbLine
 10
2546.835241569951
 20
226.9277877435246
 30
0.0
 11
2530.335241569951
 21
226.9277877435246
 31
0.0
  0
ARC
  5
14022
330
DCF2
100
AcDbEntity
  8
Ancontension
100
AcDbCircle
 10
2531.085241569951
 20
223.9818006139166
 30
0.0
 40
0.75
100
AcDbArc
 50
180.0
 51
262.1779734234495
  0
LINE
  5
14023
330
DCF2
100
AcDbEntity
  8
Ancontension
  6
HIDDEN1_01
100
AcDbLine
 10
2546.835241569951
 20
243.9277877435247
 30
0.0
 11
2530.335241569951
 21
243.9277877435247
 31
0.0
  0
ARC
  5
14024
330
DCF2
100
AcDbEntity
  8
Ancontension
100
AcDbCircle
 10
2531.085241569951
 20
246.8737748731323
 30
0.0
 40
0.75
100
AcDbArc
 50
97.82202657652458
 51
180.0
  0
LINE
  5
14027
330
DCF2
100
AcDbEntity
  8
Ancontension
100
AcDbLine
 10
2572.03662893582
 20
169.4814590460831
 30
0.0
 11
2623.633854204084
 21
169.4814590460826
 31
0.0
  0
LINE
  5
14028
330
DCF2
100
AcDbEntity
  8
Ancontension
100
AcDbLine
 10
2572.03662893582
 20
175.4814590460831
 30
0.0
 11
2623.633854204084
 21
175.4814590460824
 31
0.0
  0
LINE
  5
14029
330
DCF2
100
AcDbEntity
  8
Ancontension
100
AcDbLine
 10
2572.03662893582
 20
189.9814590460831
 30
0.0
 11
2623.633854204084
 21
189.9814590460827
 31
0.0
  0
LINE
  5
1402A
330
DCF2
100
AcDbEntity
  8
Ancontension
  6
HIDDEN1_01
100
AcDbLine
 10
2563.335241569951
 20
180.4814590460835
 30
0.0
 11
2594.335241569952
 21
180.4814590460831
 31
0.0
  0
LINE
  5
1402B
330
DCF2
100
AcDbEntity
  8
Ancontension
  6
HIDDEN1_01
100
AcDbLine
 10
2563.335241569951
 20
164.4814590460832
 30
0.0
 11
2594.335241569952
 21
164.4814590460832
 31
0.0
  0
ELLIPSE
  5
1402C
330
DCF2
100
AcDbEntity
  8
Ancontension
100
AcDbEllipse
 10
2555.085080524071
 20
161.5213039376913
 30
0.0
 11
2.25
 21
0.0
 31
0.0
210
0.0
220
0.0
230
1.0
 40
0.7071067811865408
 41
0.0
 42
6.283185307179585
  0
ELLIPSE
  5
1402D
330
DCF2
100
AcDbEntity
  8
Ancontension
100
AcDbEllipse
 10
2555.085080524071
 20
183.4416141544743
 30
0.0
 11
2.25
 21
0.0
 31
0.0
210
0.0
220
0.0
230
-1.0
 40
0.7071067811865408
 41
0.0
 42
6.283185307179585
  0
LINE
  5
1402E
330
DCF2
100
AcDbEntity
  8
Ancontension
100
AcDbLine
 10
2572.03662893582
 20
175.4814590460831
 30
0.0
 11
2572.03662893582
 21
169.4814590460831
 31
0.0
  0
ARC
  5
1402F
330
DCF2
100
AcDbEntity
  8
Ancontension
100
AcDbCircle
 10
2562.585241569951
 20
188.2547470602961
 30
0.0
 40
0.75
100
AcDbArc
 50
0.0
 51
97.82202657652458
  0
ARC
  5
14030
330
DCF2
100
AcDbEntity
  8
Ancontension
100
AcDbCircle
 10
2572.03662893582
 20
154.981459046083
 30
0.0
 40
35.0
100
AcDbArc
 50
90.0
 51
97.82202657652458
  0
ARC
  5
14031
330
DCF2
100
AcDbEntity
  8
Ancontension
100
AcDbCircle
 10
2564.085241569951
 20
188.4608090071818
 30
0.0
 40
0.75
100
AcDbArc
 50
97.82202657652458
 51
180.0
  0
LINE
  5
14032
330
DCF2
100
AcDbEntity
  8
Ancontension
100
AcDbLine
 10
2563.983169238591
 20
189.2038307021348
 30
0.0
 11
2567.273253472337
 21
189.6558048105512
 31
0.0
  0
LINE
  5
14033
330
DCF2
100
AcDbEntity
  8
Ancontension
  6
HIDDEN1_01
100
AcDbLine
 10
2601.085241569952
 20
175.4814590460827
 30
0.0
 11
2601.085241569951
 21
169.4814590460829
 31
0.0
  0
LINE
  5
14034
330
DCF2
100
AcDbEntity
  8
Ancontension
  6
HIDDEN1_01
100
AcDbLine
 10
2594.585241569951
 20
175.4814590460827
 30
0.0
 11
2594.585241569951
 21
169.4814590460829
 31
0.0
  0
LINE
  5
14035
330
DCF2
100
AcDbEntity
  8
Ancontension
  6
HIDDEN1_01
100
AcDbLine
 10
2594.335241569952
 20
165.4814590460832
 30
0.0
 11
2601.335241569952
 21
165.4814590460832
 31
0.0
  0
LINE
  5
14036
330
DCF2
100
AcDbEntity
  8
Ancontension
  6
HIDDEN1_01
100
AcDbLine
 10
2594.335241569952
 20
165.4814590460834
 30
0.0
 11
2594.335241569952
 21
164.4814590460834
 31
0.0
  0
LINE
  5
14037
330
DCF2
100
AcDbEntity
  8
Ancontension
  6
HIDDEN1_01
100
AcDbLine
 10
2601.335241569952
 20
165.4814590460834
 30
0.0
 11
2601.335241569952
 21
164.4814590460834
 31
0.0
  0
LINE
  5
14038
330
DCF2
100
AcDbEntity
  8
Ancontension
  6
HIDDEN1_01
100
AcDbLine
 10
2594.335241569952
 20
179.4814590460835
 30
0.0
 11
2601.335241569952
 21
179.4814590460836
 31
0.0
  0
LINE
  5
14039
330
DCF2
100
AcDbEntity
  8
Ancontension
  6
HIDDEN1_01
100
AcDbLine
 10
2594.335241569952
 20
180.4814590460831
 30
0.0
 11
2594.335241569952
 21
179.4814590460831
 31
0.0
  0
LINE
  5
1403A
330
DCF2
100
AcDbEntity
  8
Ancontension
  6
HIDDEN1_01
100
AcDbLine
 10
2601.335241569952
 20
180.4814590460831
 30
0.0
 11
2601.335241569952
 21
179.4814590460831
 31
0.0
  0
LINE
  5
1403B
330
DCF2
100
AcDbEntity
  8
Ancontension
100
AcDbLine
 10
2623.633854204084
 20
175.4814590460824
 30
0.0
 11
2623.633854204084
 21
169.4814590460826
 31
0.0
  0
ARC
  5
1403C
330
DCF2
100
AcDbEntity
  8
Ancontension
100
AcDbCircle
 10
2623.633854204084
 20
154.9814590460828
 30
0.0
 40
35.0
100
AcDbArc
 50
82.17797342347541
 51
90.0
  0
LINE
  5
1403D
330
DCF2
100
AcDbEntity
  8
Ancontension
100
AcDbLine
 10
2572.03662893582
 20
252.9277877435247
 30
0.0
 11
2623.633854204084
 21
252.9277877435244
 31
0.0
  0
LINE
  5
1403E
330
DCF2
100
AcDbEntity
  8
Ancontension
100
AcDbLine
 10
2572.036628935814
 20
217.927787743525
 30
0.0
 11
2623.633854204085
 21
217.9277877435243
 31
0.0
  0
LINE
  5
1403F
330
DCF2
100
AcDbEntity
  8
Ancontension
  6
HIDDEN1_01
100
AcDbLine
 10
2563.335241569951
 20
227.4277877435249
 30
0.0
 11
2594.335241569952
 21
227.4277877435249
 31
0.0
  0
LINE
  5
14040
330
DCF2
100
AcDbEntity
  8
Ancontension
  6
HIDDEN1_01
100
AcDbLine
 10
2563.335241569951
 20
243.427787743525
 30
0.0
 11
2594.335241569952
 21
243.427787743525
 31
0.0
  0
LINE
  5
14042
330
DCF2
100
AcDbEntity
  8
Ancontension
100
AcDbLine
 10
2563.335241569951
 20
251.4071377046239
 30
0.0
 11
2563.335241569951
 21
219.4484377824253
 31
0.0
  0
LINE
  5
14044
330
DCF2
100
AcDbEntity
  8
Ancontension
100
AcDbLine
 10
2563.335241569951
 20
251.4071377046239
 30
0.0
 11
2563.335241569951
 21
219.4484377824253
 31
0.0
  0
ELLIPSE
  5
14045
330
DCF2
100
AcDbEntity
  8
Ancontension
100
AcDbEllipse
 10
2555.085080524071
 20
224.467632635133
 30
0.0
 11
2.25
 21
0.0
 31
0.0
210
0.0
220
0.0
230
1.0
 40
0.7071067811865408
 41
0.0
 42
6.283185307179585
  0
ARC
  5
14046
330
DCF2
100
AcDbEntity
  8
Ancontension
100
AcDbCircle
 10
2562.585241569951
 20
219.6544997293111
 30
0.0
 40
0.75
100
AcDbArc
 50
262.1779734234495
 51
0.0000000000065138
  0
ARC
  5
14047
330
DCF2
100
AcDbEntity
  8
Ancontension
100
AcDbCircle
 10
2572.036628935814
 20
252.9277877435252
 30
0.0
 40
35.0
100
AcDbArc
 50
262.1779734234495
 51
270.0
  0
ARC
  5
14048
330
DCF2
100
AcDbEntity
  8
Ancontension
100
AcDbCircle
 10
2564.085241569951
 20
219.4484377824253
 30
0.0
 40
0.75
100
AcDbArc
 50
180.0
 51
262.1779734234495
  0
LINE
  5
14049
330
DCF2
100
AcDbEntity
  8
Ancontension
100
AcDbLine
 10
2563.983169238591
 20
218.7054160874724
 30
0.0
 11
2567.273253472331
 21
218.2534419790568
 31
0.0
  0
ELLIPSE
  5
1404A
330
DCF2
100
AcDbEntity
  8
Ancontension
100
AcDbEllipse
 10
2555.085080524071
 20
246.387942851916
 30
0.0
 11
2.25
 21
0.0
 31
0.0
210
0.0
220
0.0
230
-1.0
 40
0.7071067811865408
 41
0.0
 42
6.283185307179585
  0
ARC
  5
1404B
330
DCF2
100
AcDbEntity
  8
Ancontension
100
AcDbCircle
 10
2562.585241569951
 20
251.2010757577376
 30
0.0
 40
0.75
100
AcDbArc
 50
0.0
 51
97.82202657652458
  0
ARC
  5
1404E
330
DCF2
100
AcDbEntity
  8
Ancontension
100
AcDbCircle
 10
2572.03662893582
 20
217.9277877435247
 30
0.0
 40
35.0
100
AcDbArc
 50
90.0
 51
97.82202657652458
  0
ARC
  5
1404F
330
DCF2
100
AcDbEntity
  8
Ancontension
100
AcDbCircle
 10
2564.085241569951
 20
251.4071377046239
 30
0.0
 40
0.75
100
AcDbArc
 50
97.82202657652458
 51
180.0
  0
LINE
  5
14050
330
DCF2
100
AcDbEntity
  8
Ancontension
100
AcDbLine
 10
2563.983169238591
 20
252.1501593995767
 30
0.0
 11
2567.273253472337
 21
252.602133507993
 31
0.0
  0
LINE
  5
14051
330
DCF2
100
AcDbEntity
  8
Ancontension
  6
HIDDEN1_01
100
AcDbLine
 10
2594.335241569952
 20
243.427787743525
 30
0.0
 11
2594.335241569952
 21
242.4277877435252
 31
0.0
  0
LINE
  5
14052
330
DCF2
100
AcDbEntity
  8
Ancontension
  6
HIDDEN1_01
100
AcDbLine
 10
2601.335241569952
 20
243.427787743525
 30
0.0
 11
2601.335241569952
 21
242.4277877435252
 31
0.0
  0
LINE
  5
14054
330
DCF2
100
AcDbEntity
  8
Ancontension
  6
HIDDEN1_01
100
AcDbLine
 10
2594.335241569952
 20
228.4277877435249
 30
0.0
 11
2601.335241569952
 21
228.4277877435249
 31
0.0
  0
LINE
  5
14055
330
DCF2
100
AcDbEntity
  8
Ancontension
  6
HIDDEN1_01
100
AcDbLine
 10
2601.335241569952
 20
228.427787743525
 30
0.0
 11
2601.335241569952
 21
227.4277877435252
 31
0.0
  0
LINE
  5
14056
330
DCF2
100
AcDbEntity
  8
Ancontension
  6
HIDDEN1_01
100
AcDbLine
 10
2594.335241569952
 20
228.427787743525
 30
0.0
 11
2594.335241569952
 21
227.4277877435252
 31
0.0
  0
LINE
  5
14057
330
DCF2
100
AcDbEntity
  8
Ancontension
  6
HIDDEN1_01
100
AcDbLine
 10
2594.335241569952
 20
242.4277877435252
 30
0.0
 11
2601.335241569952
 21
242.4277877435252
 31
0.0
  0
ARC
  5
14058
330
DCF2
100
AcDbEntity
  8
Ancontension
100
AcDbCircle
 10
2623.633854204086
 20
252.9277877435241
 30
0.0
 40
35.0
100
AcDbArc
 50
270.0
 51
277.8220265765245
  0
CIRCLE
  5
1405D
330
DCF2
100
AcDbEntity
  8
Ancontension
100
AcDbCircle
 10
2597.835241569953
 20
265.9984783162986
 30
0.0
 40
3.25
  0
ARC
  5
1405E
330
DCF2
100
AcDbEntity
  8
Ancontension
100
AcDbCircle
 10
2623.633854204084
 20
217.9277877435245
 30
0.0
 40
35.0
100
AcDbArc
 50
82.17797342347541
 51
90.0
  0
ARC
  5
1405F
330
DCF2
100
AcDbEntity
  8
Ancontension
100
AcDbCircle
 10
2597.835241569953
 20
265.9984783162986
 30
0.0
 40
9.0
100
AcDbArc
 50
44.99999999999539
 51
135.0000000000046
  0
LINE
  5
14060
330
DCF2
100
AcDbEntity
  8
Ancontension
100
AcDbLine
 10
2632.335241569952
 20
188.4608090071816
 30
0.0
 11
2632.335241569952
 21
156.5021090849834
 31
0.0
  0
LINE
  5
14061
330
DCF2
100
AcDbEntity
  8
Ancontension
100
AcDbLine
 10
2632.335241569952
 20
188.4608090071816
 30
0.0
 11
2632.335241569952
 21
156.5021090849834
 31
0.0
  0
LINE
  5
14062
330
DCF2
100
AcDbEntity
  8
Ancontension
100
AcDbLine
 10
2664.687313901312
 20
160.2924502215218
 30
0.0
 11
2633.187313901311
 21
155.9651493369161
 31
0.0
  0
ARC
  5
14063
330
DCF2
100
AcDbEntity
  8
Ancontension
100
AcDbCircle
 10
2633.085241569952
 20
156.708171031869
 30
0.0
 40
0.75
100
AcDbArc
 50
179.9999999999934
 51
277.8220265765245
  0
ARC
  5
14064
330
DCF2
100
AcDbEntity
  8
Ancontension
100
AcDbCircle
 10
2631.585241569952
 20
156.5021090849834
 30
0.0
 40
0.75
100
AcDbArc
 50
277.8220265765245
 51
0.0
  0
LINE
  5
14066
330
DCF2
100
AcDbEntity
  8
Ancontension
  6
HIDDEN1_01
100
AcDbLine
 10
2648.835241569952
 20
163.9814590460825
 30
0.0
 11
2665.335241569952
 21
163.9814590460825
 31
0.0
  0
LINE
  5
14067
330
DCF2
100
AcDbEntity
  8
Ancontension
  6
HIDDEN1_01
100
AcDbLine
 10
2648.835241569952
 20
180.9814590460826
 30
0.0
 11
2665.335241569952
 21
180.9814590460826
 31
0.0
  0
LINE
  5
14068
330
DCF2
100
AcDbEntity
  8
Ancontension
100
AcDbLine
 10
2664.687313901312
 20
184.6704678706432
 30
0.0
 11
2633.187313901311
 21
188.9977687552486
 31
0.0
  0
LINE
  5
1406A
330
DCF2
100
AcDbEntity
  8
Ancontension
  6
HIDDEN1_01
100
AcDbLine
 10
2648.835241569952
 20
180.9814590460826
 30
0.0
 11
2648.835241569952
 21
163.9814590460825
 31
0.0
  0
LINE
  5
1406B
330
DCF2
100
AcDbEntity
  8
Ancontension
  6
HIDDEN1_01
100
AcDbLine
 10
2632.335241569952
 20
164.4814590460826
 30
0.0
 11
2648.835241569952
 21
164.4814590460826
 31
0.0
  0
ELLIPSE
  5
1406C
330
DCF2
100
AcDbEntity
  8
Ancontension
100
AcDbEllipse
 10
2640.585402615831
 20
161.521303937691
 30
0.0
 11
-2.25
 21
0.0
 31
0.0
210
0.0
220
0.0
230
-1.0
 40
0.7071067811865408
 41
0.0
 42
6.283185307179585
  0
LINE
  5
1406D
330
DCF2
100
AcDbEntity
  8
Ancontension
  6
HIDDEN1_01
100
AcDbLine
 10
2632.335241569952
 20
180.4814590460825
 30
0.0
 11
2648.835241569952
 21
180.4814590460825
 31
0.0
  0
ELLIPSE
  5
1406E
330
DCF2
100
AcDbEntity
  8
Ancontension
100
AcDbEllipse
 10
2640.585402615831
 20
183.4416141544739
 30
0.0
 11
-2.25
 21
0.0
 31
0.0
210
0.0
220
0.0
230
1.0
 40
0.7071067811865408
 41
0.0
 42
6.283185307179585
  0
ARC
  5
1406F
330
DCF2
100
AcDbEntity
  8
Ancontension
100
AcDbCircle
 10
2633.085241569952
 20
188.2547470602958
 30
0.0
 40
0.75
100
AcDbArc
 50
82.17797342347541
 51
180.0
  0
ARC
  5
14070
330
DCF2
100
AcDbEntity
  8
Ancontension
100
AcDbCircle
 10
2631.585241569952
 20
188.4608090071816
 30
0.0
 40
0.75
100
AcDbArc
 50
0.0
 51
82.17797342347541
  0
LINE
  5
14071
330
DCF2
100
AcDbEntity
  8
Ancontension
100
AcDbLine
 10
2665.335241569952
 20
183.9274461756904
 30
0.0
 11
2665.335241569952
 21
161.0354719164746
 31
0.0
  0
ARC
  5
14072
330
DCF2
100
AcDbEntity
  8
Ancontension
100
AcDbCircle
 10
2664.585241569952
 20
161.0354719164746
 30
0.0
 40
0.75
100
AcDbArc
 50
277.8220265765245
 51
0.0
  0
ARC
  5
14073
330
DCF2
100
AcDbEntity
  8
Ancontension
100
AcDbCircle
 10
2664.585241569952
 20
183.9274461756904
 30
0.0
 40
0.75
100
AcDbArc
 50
0.0
 51
82.17797342347541
  0
LINE
  5
14074
330
DCF2
100
AcDbEntity
  8
Ancontension
100
AcDbLine
 10
2664.687313901312
 20
247.6167965680849
 30
0.0
 11
2633.187313901311
 21
251.9440974526903
 31
0.0
  0
LINE
  5
14075
330
DCF2
100
AcDbEntity
  8
Ancontension
100
AcDbLine
 10
2664.687313901312
 20
223.2387789189635
 30
0.0
 11
2633.187313901311
 21
218.9114780343579
 31
0.0
  0
LINE
  5
14076
330
DCF2
100
AcDbEntity
  8
Ancontension
  6
HIDDEN1_01
100
AcDbLine
 10
2648.835241569952
 20
226.9277877435241
 30
0.0
 11
2665.335241569952
 21
226.9277877435241
 31
0.0
  0
LINE
  5
14077
330
DCF2
100
AcDbEntity
  8
Ancontension
  6
HIDDEN1_01
100
AcDbLine
 10
2648.835241569952
 20
243.9277877435241
 30
0.0
 11
2665.335241569952
 21
243.9277877435241
 31
0.0
  0
LINE
  5
14078
330
DCF2
100
AcDbEntity
  8
Ancontension
  6
HIDDEN1_01
100
AcDbLine
 10
2648.835241569952
 20
243.9277877435241
 30
0.0
 11
2648.835241569952
 21
226.9277877435241
 31
0.0
  0
LINE
  5
1407A
330
DCF2
100
AcDbEntity
  8
Ancontension
100
AcDbLine
 10
2632.335241569952
 20
251.4071377046234
 30
0.0
 11
2632.335241569952
 21
219.4484377824251
 31
0.0
  0
LINE
  5
1407B
330
DCF2
100
AcDbEntity
  8
Ancontension
100
AcDbLine
 10
2632.335241569952
 20
251.4071377046234
 30
0.0
 11
2632.335241569952
 21
219.4484377824251
 31
0.0
  0
ARC
  5
1407D
330
DCF2
100
AcDbEntity
  8
Ancontension
100
AcDbCircle
 10
2633.085241569952
 20
219.6544997293107
 30
0.0
 40
0.75
100
AcDbArc
 50
179.9999999999934
 51
277.8220265765245
  0
ARC
  5
1407E
330
DCF2
100
AcDbEntity
  8
Ancontension
100
AcDbCircle
 10
2631.585241569952
 20
219.4484377824251
 30
0.0
 40
0.75
100
AcDbArc
 50
277.8220265765245
 51
0.0
  0
LINE
  5
1407F
330
DCF2
100
AcDbEntity
  8
Ancontension
  6
HIDDEN1_01
100
AcDbLine
 10
2632.335241569952
 20
227.4277877435241
 30
0.0
 11
2648.835241569952
 21
227.4277877435241
 31
0.0
  0
ELLIPSE
  5
14080
330
DCF2
100
AcDbEntity
  8
Ancontension
100
AcDbEllipse
 10
2640.585402615831
 20
224.4676326351326
 30
0.0
 11
-2.25
 21
0.0
 31
0.0
210
0.0
220
0.0
230
-1.0
 40
0.7071067811865408
 41
0.0
 42
6.283185307179585
  0
ARC
  5
14081
330
DCF2
100
AcDbEntity
  8
Ancontension
100
AcDbCircle
 10
2633.085241569952
 20
251.2010757577375
 30
0.0
 40
0.75
100
AcDbArc
 50
82.17797342347541
 51
180.0
  0
ARC
  5
14082
330
DCF2
100
AcDbEntity
  8
Ancontension
100
AcDbCircle
 10
2631.585241569952
 20
251.4071377046234
 30
0.0
 40
0.75
100
AcDbArc
 50
0.0
 51
82.17797342347541
  0
LINE
  5
14083
330
DCF2
100
AcDbEntity
  8
Ancontension
  6
HIDDEN1_01
100
AcDbLine
 10
2632.335241569952
 20
243.4277877435241
 30
0.0
 11
2648.835241569952
 21
243.4277877435241
 31
0.0
  0
ELLIPSE
  5
14084
330
DCF2
100
AcDbEntity
  8
Ancontension
100
AcDbEllipse
 10
2640.585402615831
 20
246.3879428519156
 30
0.0
 11
-2.25
 21
0.0
 31
0.0
210
0.0
220
0.0
230
1.0
 40
0.7071067811865408
 41
0.0
 42
6.283185307179585
  0
LINE
  5
14085
330
DCF2
100
AcDbEntity
  8
Ancontension
100
AcDbLine
 10
2665.335241569952
 20
246.873774873132
 30
0.0
 11
2665.335241569952
 21
223.9818006139163
 31
0.0
  0
ARC
  5
14086
330
DCF2
100
AcDbEntity
  8
Ancontension
100
AcDbCircle
 10
2664.585241569952
 20
223.9818006139163
 30
0.0
 40
0.75
100
AcDbArc
 50
277.8220265765245
 51
0.0
  0
ARC
  5
14087
330
DCF2
100
AcDbEntity
  8
Ancontension
100
AcDbCircle
 10
2664.585241569952
 20
246.873774873132
 30
0.0
 40
0.75
100
AcDbArc
 50
0.0
 51
82.17797342347541
  0
TEXT
  5
141BF
330
DCF2
100
AcDbEntity
  8
Ancontension
100
AcDbText
 10
2585.749428929899
 20
197.8310204075915
 30
0.0
 40
10.0
  1
16
  7
ROMANS
100
AcDbText
  0
LINE
  5
142ED
330
DCF2
100
AcDbEntity
  8
Ancontension
  6
HIDDEN1_01
100
AcDbLine
 10
2886.258254423501
 20
169.7586862485744
 30
0.0
 11
2886.258254423501
 21
147.7586862485743
 31
0.0
  0
LINE
  5
142EE
330
DCF2
100
AcDbEntity
  8
Ancontension
  6
HIDDEN1_01
100
AcDbLine
 10
2766.258254423501
 20
169.7586862485744
 30
0.0
 11
2766.258254423501
 21
147.7586862485744
 31
0.0
  0
LINE
  5
142EF
330
DCF2
100
AcDbEntity
  8
Ancontension
100
AcDbLine
 10
2785.258254423499
 20
178.589603367759
 30
0.0
 11
2785.258254423501
 21
138.9277691293903
 31
0.0
  0
LINE
  5
142F0
330
DCF2
100
AcDbEntity
  8
Ancontension
100
AcDbLine
 10
2747.258254423501
 20
173.2111043929529
 30
0.0
 11
2747.258254423501
 21
144.306268104196
 31
0.0
  0
LINE
  5
142F1
330
DCF2
100
AcDbEntity
  8
Ancontension
100
AcDbLine
 10
2785.258254423501
 20
178.8106375722029
 30
0.0
 11
2785.258254423501
 21
138.7067349249462
 31
0.0
  0
LINE
  5
142F2
330
DCF2
100
AcDbEntity
  8
Ancontension
100
AcDbLine
 10
2867.258254423502
 20
178.8106375722029
 30
0.0
 11
2867.258254423501
 21
138.7067349249459
 31
0.0
  0
LINE
  5
142F3
330
DCF2
100
AcDbEntity
  8
Ancontension
100
AcDbLine
 10
2867.258254423501
 20
178.5896033677588
 30
0.0
 11
2867.258254423501
 21
138.9277691293901
 31
0.0
  0
LINE
  5
142F4
330
DCF2
100
AcDbEntity
  8
Ancontension
100
AcDbLine
 10
2905.258254423501
 20
173.2111043929528
 30
0.0
 11
2905.258254423501
 21
144.306268104196
 31
0.0
  0
ELLIPSE
  5
142F5
330
DCF2
100
AcDbEntity
  8
Ancontension
100
AcDbEllipse
 10
2888.971182433651
 20
146.3843175778098
 30
0.0
 11
-2.25
 21
0.0
 31
0.0
210
0.0
220
0.0
230
-1.0
 40
0.7071067811865659
 41
0.0
 42
6.283185307179585
  0
LINE
  5
142F6
330
DCF2
100
AcDbEntity
  8
Ancontension
  6
HIDDEN1_01
100
AcDbLine
 10
2886.258254423499
 20
147.7586862485743
 30
0.0
 11
2905.258254423499
 21
147.7586862485743
 31
0.0
  0
LINE
  5
142F7
330
DCF2
100
AcDbEntity
  8
Ancontension
100
AcDbLine
 10
2904.617590844306
 20
143.5642805388786
 30
0.0
 11
2868.117590844306
 21
138.1857815640727
 31
0.0
  0
ELLIPSE
  5
142F8
330
DCF2
100
AcDbEntity
  8
Ancontension
100
AcDbEllipse
 10
2763.545326413352
 20
146.3843175778098
 30
0.0
 11
2.25
 21
0.0
 31
0.0
210
0.0
220
0.0
230
1.0
 40
0.7071067811865659
 41
0.0
 42
6.283185307179585
  0
LINE
  5
142F9
330
DCF2
100
AcDbEntity
  8
Ancontension
  6
HIDDEN1_01
100
AcDbLine
 10
2766.258254423501
 20
147.7586862485744
 30
0.0
 11
2747.258254423501
 21
147.7586862485744
 31
0.0
  0
LINE
  5
142FA
330
DCF2
100
AcDbEntity
  8
Ancontension
100
AcDbLine
 10
2747.898918002697
 20
143.5642805388788
 30
0.0
 11
2784.398918002696
 21
138.1857815640728
 31
0.0
  0
ARC
  5
142FB
330
DCF2
100
AcDbEntity
  8
Ancontension
100
AcDbCircle
 10
2748.008254423501
 20
144.306268104196
 30
0.0
 40
0.75
100
AcDbArc
 50
180.0
 51
261.6174404237763
  0
LINE
  5
142FC
330
DCF2
100
AcDbEntity
  8
Ancontension
  6
HIDDEN1_01
100
AcDbLine
 10
2785.258254423501
 20
148.7586862485744
 30
0.0
 11
2766.258254423501
 21
148.7586862485744
 31
0.0
  0
ARC
  5
142FD
330
DCF2
100
AcDbEntity
  8
Ancontension
100
AcDbCircle
 10
2784.508254423501
 20
138.9277691293903
 30
0.0
 40
0.7500000000001137
100
AcDbArc
 50
261.6174404237765
 51
359.9999999999933
  0
LINE
  5
142FE
330
DCF2
100
AcDbEntity
  8
Ancontension
100
AcDbLine
 10
2793.841589344213
 20
154.7586862485744
 30
0.0
 11
2858.674919502798
 21
154.7586862485744
 31
0.0
  0
LINE
  5
142FF
330
DCF2
100
AcDbEntity
  8
Ancontension
100
AcDbLine
 10
2793.841589344213
 20
162.7586862485745
 30
0.0
 11
2858.674919502798
 21
162.7586862485745
 31
0.0
  0
LINE
  5
14300
330
DCF2
100
AcDbEntity
  8
Ancontension
  6
HIDDEN1_01
100
AcDbLine
 10
2831.2582544235
 20
148.7586862485754
 30
0.0
 11
2867.258254423501
 21
148.7586862485754
 31
0.0
  0
LINE
  5
14301
330
DCF2
100
AcDbEntity
  8
Ancontension
100
AcDbLine
 10
2793.841589344197
 20
137.2586862485757
 30
0.0
 11
2858.674919502798
 21
137.2586862485746
 31
0.0
  0
LINE
  5
14302
330
DCF2
100
AcDbEntity
  8
Ancontension
  6
HIDDEN1_01
100
AcDbLine
 10
2785.258254423501
 20
148.7586862485754
 30
0.0
 11
2821.258254423501
 21
148.7586862485754
 31
0.0
  0
ARC
  5
14303
330
DCF2
100
AcDbEntity
  8
Ancontension
100
AcDbCircle
 10
2793.841589344197
 20
180.2586862485757
 30
0.0
 40
43.0
100
AcDbArc
 50
261.6174404237763
 51
270.0
  0
LINE
  5
14304
330
DCF2
100
AcDbEntity
  8
Ancontension
100
AcDbLine
 10
2785.898918002695
 20
137.9647473596289
 30
0.0
 11
2787.572967884717
 21
137.7180658370472
 31
0.0
  0
ARC
  5
14305
330
DCF2
100
AcDbEntity
  8
Ancontension
100
AcDbCircle
 10
2786.008254423501
 20
138.7067349249462
 30
0.0
 40
0.75
100
AcDbArc
 50
180.0
 51
261.6174404237763
  0
LINE
  5
14306
330
DCF2
100
AcDbEntity
  8
Ancontension
100
AcDbLine
 10
2793.841589344213
 20
162.7586862485745
 30
0.0
 11
2793.841589344213
 21
154.7586862485744
 31
0.0
  0
LINE
  5
14307
330
DCF2
100
AcDbEntity
  8
Ancontension
  6
HIDDEN1_01
100
AcDbLine
 10
2831.2582544235
 20
150.008686248575
 30
0.0
 11
2831.2582544235
 21
148.7586862485754
 31
0.0
  0
LINE
  5
14308
330
DCF2
100
AcDbEntity
  8
Ancontension
  6
HIDDEN1_01
100
AcDbLine
 10
2821.258254423501
 20
150.0086862485751
 30
0.0
 11
2821.258254423501
 21
148.7586862485754
 31
0.0
  0
LINE
  5
14309
330
DCF2
100
AcDbEntity
  8
Ancontension
  6
HIDDEN1_01
100
AcDbLine
 10
2821.258254423501
 20
150.0086862485751
 30
0.0
 11
2831.2582544235
 21
150.0086862485749
 31
0.0
  0
LINE
  5
1430A
330
DCF2
100
AcDbEntity
  8
Ancontension
  6
HIDDEN1_01
100
AcDbLine
 10
2822.508254423505
 20
162.7586862485745
 30
0.0
 11
2822.508254423505
 21
154.7586862485744
 31
0.0
  0
LINE
  5
1430B
330
DCF2
100
AcDbEntity
  8
Ancontension
  6
HIDDEN1_01
100
AcDbLine
 10
2830.008254423505
 20
162.7586862485745
 30
0.0
 11
2830.008254423505
 21
154.7586862485744
 31
0.0
  0
ARC
  5
1430D
330
DCF2
100
AcDbEntity
  8
Ancontension
100
AcDbCircle
 10
2858.674919502798
 20
180.2586862485744
 30
0.0
 40
43.0
100
AcDbArc
 50
270.0
 51
278.3825595762236
  0
LINE
  5
1430E
330
DCF2
100
AcDbEntity
  8
Ancontension
100
AcDbLine
 10
2866.617590844304
 20
137.9647473596286
 30
0.0
 11
2864.943540962277
 21
137.7180658370463
 31
0.0
  0
ARC
  5
1430F
330
DCF2
100
AcDbEntity
  8
Ancontension
100
AcDbCircle
 10
2866.508254423501
 20
138.7067349249459
 30
0.0
 40
0.75
100
AcDbArc
 50
278.3825595762236
 51
0.0
  0
LINE
  5
14310
330
DCF2
100
AcDbEntity
  8
Ancontension
100
AcDbLine
 10
2858.674919502798
 20
162.7586862485745
 30
0.0
 11
2858.674919502798
 21
154.7586862485744
 31
0.0
  0
LINE
  5
14311
330
DCF2
100
AcDbEntity
  8
Ancontension
  6
HIDDEN1_01
100
AcDbLine
 10
2867.258254423501
 20
148.7586862485744
 30
0.0
 11
2886.258254423499
 21
148.7586862485744
 31
0.0
  0
ARC
  5
14312
330
DCF2
100
AcDbEntity
  8
Ancontension
100
AcDbCircle
 10
2868.008254423502
 20
138.9277691293901
 30
0.0
 40
0.7500000000001137
100
AcDbArc
 50
180.0000000000064
 51
278.3825595762233
  0
ARC
  5
14313
330
DCF2
100
AcDbEntity
  8
Ancontension
100
AcDbCircle
 10
2904.508254423501
 20
144.306268104196
 30
0.0
 40
0.75
100
AcDbArc
 50
278.3825595762236
 51
0.0
  0
ELLIPSE
  5
14314
330
DCF2
100
AcDbEntity
  8
Ancontension
100
AcDbEllipse
 10
2888.971182433651
 20
171.1330549193389
 30
0.0
 11
-2.25
 21
0.0
 31
0.0
210
0.0
220
0.0
230
1.0
 40
0.7071067811865659
 41
0.0
 42
6.283185307179585
  0
ELLIPSE
  5
14315
330
DCF2
100
AcDbEntity
  8
Ancontension
100
AcDbEllipse
 10
2888.971182433651
 20
222.7156515208458
 30
0.0
 11
-2.25
 21
0.0
 31
0.0
210
0.0
220
0.0
230
-1.0
 40
0.7071067811865659
 41
0.0
 42
6.283185307179585
  0
ELLIPSE
  5
14316
330
DCF2
100
AcDbEntity
  8
Ancontension
100
AcDbEllipse
 10
2888.971182433651
 20
247.464388862375
 30
0.0
 11
-2.25
 21
0.0
 31
0.0
210
0.0
220
0.0
230
1.0
 40
0.7071067811865659
 41
0.0
 42
6.283185307179585
  0
LINE
  5
14318
330
DCF2
100
AcDbEntity
  8
Ancontension
100
AcDbLine
 10
2904.617590844306
 20
219.8956144819145
 30
0.0
 11
2868.117590844306
 21
214.5171155071086
 31
0.0
  0
LINE
  5
14319
330
DCF2
100
AcDbEntity
  8
Ancontension
  6
HIDDEN1_01
100
AcDbLine
 10
2886.258254423499
 20
224.0900201916104
 30
0.0
 11
2905.258254423499
 21
224.0900201916104
 31
0.0
  0
LINE
  5
1431A
330
DCF2
100
AcDbEntity
  8
Ancontension
  6
HIDDEN1_01
100
AcDbLine
 10
2886.258254423501
 20
246.0900201916103
 30
0.0
 11
2905.258254423499
 21
246.0900201916103
 31
0.0
  0
LINE
  5
1431B
330
DCF2
100
AcDbEntity
  8
Ancontension
100
AcDbLine
 10
2904.617590844306
 20
173.9530919582703
 30
0.0
 11
2868.117590844306
 21
179.3315909330759
 31
0.0
  0
LINE
  5
1431C
330
DCF2
100
AcDbEntity
  8
Ancontension
  6
HIDDEN1_01
100
AcDbLine
 10
2886.258254423501
 20
169.7586862485744
 30
0.0
 11
2905.258254423499
 21
169.7586862485744
 31
0.0
  0
LINE
  5
1431D
330
DCF2
100
AcDbEntity
  8
Ancontension
100
AcDbLine
 10
2904.617590844306
 20
250.2844259013063
 30
0.0
 11
2868.117590844306
 21
255.6629248761121
 31
0.0
  0
LINE
  5
14320
330
DCF2
100
AcDbEntity
  8
Ancontension
100
AcDbLine
 10
2858.674919502798
 20
256.5900201916117
 30
0.0
 11
2834.743535797744
 21
280.521403896665
 31
0.0
  0
LINE
  5
14321
330
DCF2
100
AcDbEntity
  8
Ancontension
100
AcDbLine
 10
2793.841589344213
 20
256.5900201916117
 30
0.0
 11
2817.772973049267
 21
280.521403896665
 31
0.0
  0
CIRCLE
  5
14322
330
DCF2
100
AcDbEntity
  8
Ancontension
100
AcDbCircle
 10
2826.258254423505
 20
272.0361225224265
 30
0.0
 40
3.75
  0
LINE
  5
14326
330
DCF2
100
AcDbEntity
  8
Ancontension
100
AcDbLine
 10
2747.898918002697
 20
219.8956144819149
 30
0.0
 11
2784.398918002696
 21
214.5171155071087
 31
0.0
  0
LINE
  5
14327
330
DCF2
100
AcDbEntity
  8
Ancontension
100
AcDbLine
 10
2785.258254423499
 20
254.9209373107951
 30
0.0
 11
2785.258254423501
 21
215.2591030724263
 31
0.0
  0
ELLIPSE
  5
14328
330
DCF2
100
AcDbEntity
  8
Ancontension
100
AcDbEllipse
 10
2763.545326413352
 20
171.1330549193391
 30
0.0
 11
2.25
 21
0.0
 31
0.0
210
0.0
220
0.0
230
-1.0
 40
0.7071067811865659
 41
0.0
 42
6.283185307179585
  0
LINE
  5
14329
330
DCF2
100
AcDbEntity
  8
Ancontension
100
AcDbLine
 10
2747.898918002696
 20
173.9530919582703
 30
0.0
 11
2784.398918002696
 21
179.3315909330763
 31
0.0
  0
LINE
  5
1432A
330
DCF2
100
AcDbEntity
  8
Ancontension
  6
HIDDEN1_01
100
AcDbLine
 10
2766.258254423501
 20
169.7586862485744
 30
0.0
 11
2747.258254423501
 21
169.7586862485744
 31
0.0
  0
ARC
  5
1432B
330
DCF2
100
AcDbEntity
  8
Ancontension
100
AcDbCircle
 10
2748.008254423501
 20
173.2111043929529
 30
0.0
 40
0.75
100
AcDbArc
 50
98.38255957622365
 51
180.0
  0
LINE
  5
1432C
330
DCF2
100
AcDbEntity
  8
Ancontension
  6
HIDDEN1_01
100
AcDbLine
 10
2785.258254423499
 20
168.7586862485744
 30
0.0
 11
2766.258254423501
 21
168.7586862485744
 31
0.0
  0
ARC
  5
1432D
330
DCF2
100
AcDbEntity
  8
Ancontension
100
AcDbCircle
 10
2784.508254423499
 20
178.589603367759
 30
0.0
 40
0.75
100
AcDbArc
 50
0.0
 51
98.38255957622365
  0
ARC
  5
1432E
330
DCF2
100
AcDbEntity
  8
Ancontension
100
AcDbCircle
 10
2784.508254423501
 20
215.2591030724263
 30
0.0
 40
0.7500000000001137
100
AcDbArc
 50
261.6174404237765
 51
359.9999999999933
  0
ELLIPSE
  5
1432F
330
DCF2
100
AcDbEntity
  8
Ancontension
100
AcDbEllipse
 10
2763.545326413352
 20
247.464388862375
 30
0.0
 11
2.25
 21
0.0
 31
0.0
210
0.0
220
0.0
230
-1.0
 40
0.7071067811865659
 41
0.0
 42
6.283185307179585
  0
LINE
  5
14330
330
DCF2
100
AcDbEntity
  8
Ancontension
100
AcDbLine
 10
2747.258254423501
 20
249.542438335989
 30
0.0
 11
2747.258254423501
 21
220.637602047232
 31
0.0
  0
ELLIPSE
  5
14331
330
DCF2
100
AcDbEntity
  8
Ancontension
100
AcDbEllipse
 10
2763.545326413352
 20
222.7156515208459
 30
0.0
 11
2.25
 21
0.0
 31
0.0
210
0.0
220
0.0
230
1.0
 40
0.7071067811865659
 41
0.0
 42
6.283185307179585
  0
LINE
  5
14332
330
DCF2
100
AcDbEntity
  8
Ancontension
  6
HIDDEN1_01
100
AcDbLine
 10
2766.258254423501
 20
246.0900201916106
 30
0.0
 11
2747.258254423501
 21
246.0900201916106
 31
0.0
  0
LINE
  5
14333
330
DCF2
100
AcDbEntity
  8
Ancontension
  6
HIDDEN1_01
100
AcDbLine
 10
2766.258254423501
 20
224.0900201916105
 30
0.0
 11
2747.258254423501
 21
224.0900201916105
 31
0.0
  0
ARC
  5
14334
330
DCF2
100
AcDbEntity
  8
Ancontension
100
AcDbCircle
 10
2748.008254423501
 20
220.637602047232
 30
0.0
 40
0.75
100
AcDbArc
 50
180.0
 51
261.6174404237763
  0
LINE
  5
14335
330
DCF2
100
AcDbEntity
  8
Ancontension
  6
HIDDEN1_01
100
AcDbLine
 10
2766.258254423501
 20
246.0900201916106
 30
0.0
 11
2766.258254423501
 21
224.0900201916105
 31
0.0
  0
LINE
  5
14336
330
DCF2
100
AcDbEntity
  8
Ancontension
  6
HIDDEN1_01
100
AcDbLine
 10
2785.258254423501
 20
225.0900201916106
 30
0.0
 11
2766.258254423501
 21
225.0900201916106
 31
0.0
  0
LINE
  5
14337
330
DCF2
100
AcDbEntity
  8
Ancontension
  6
HIDDEN1_01
100
AcDbLine
 10
2785.258254423499
 20
245.0900201916105
 30
0.0
 11
2766.258254423501
 21
245.0900201916105
 31
0.0
  0
LINE
  5
14338
330
DCF2
100
AcDbEntity
  8
Ancontension
100
AcDbLine
 10
2747.898918002696
 20
250.2844259013063
 30
0.0
 11
2784.398918002696
 21
255.6629248761123
 31
0.0
  0
ARC
  5
14339
330
DCF2
100
AcDbEntity
  8
Ancontension
100
AcDbCircle
 10
2748.008254423501
 20
249.542438335989
 30
0.0
 40
0.75
100
AcDbArc
 50
98.38255957622365
 51
180.0
  0
ARC
  5
1433A
330
DCF2
100
AcDbEntity
  8
Ancontension
100
AcDbCircle
 10
2784.508254423499
 20
254.9209373107951
 30
0.0
 40
0.75
100
AcDbArc
 50
0.0
 51
98.38255957622365
  0
LINE
  5
1433B
330
DCF2
100
AcDbEntity
  8
Ancontension
100
AcDbLine
 10
2867.258254423501
 20
254.9209373107948
 30
0.0
 11
2867.258254423501
 21
215.2591030724261
 31
0.0
  0
LINE
  5
1433C
330
DCF2
100
AcDbEntity
  8
Ancontension
100
AcDbLine
 10
2867.258254423502
 20
255.1419715152388
 30
0.0
 11
2867.258254423501
 21
215.038068867982
 31
0.0
  0
LINE
  5
1433D
330
DCF2
100
AcDbEntity
  8
Ancontension
100
AcDbLine
 10
2785.258254423501
 20
255.1419715152388
 30
0.0
 11
2785.258254423501
 21
215.0380688679824
 31
0.0
  0
LINE
  5
1433F
330
DCF2
100
AcDbEntity
  8
Ancontension
100
AcDbLine
 10
2793.841589344197
 20
213.5900201916116
 30
0.0
 11
2858.674919502798
 21
213.5900201916105
 31
0.0
  0
LINE
  5
14340
330
DCF2
100
AcDbEntity
  8
Ancontension
  6
HIDDEN1_01
100
AcDbLine
 10
2831.2582544235
 20
168.7586862485753
 30
0.0
 11
2867.258254423501
 21
168.7586862485753
 31
0.0
  0
LINE
  5
14341
330
DCF2
100
AcDbEntity
  8
Ancontension
100
AcDbLine
 10
2793.841589344213
 20
180.2586862485757
 30
0.0
 11
2858.674919502798
 21
180.2586862485744
 31
0.0
  0
LINE
  5
14343
330
DCF2
100
AcDbEntity
  8
Ancontension
  6
HIDDEN1_01
100
AcDbLine
 10
2785.258254423501
 20
168.7586862485753
 30
0.0
 11
2821.258254423501
 21
168.7586862485753
 31
0.0
  0
ARC
  5
14344
330
DCF2
100
AcDbEntity
  8
Ancontension
100
AcDbCircle
 10
2793.841589344213
 20
137.2586862485757
 30
0.0
 40
43.0
100
AcDbArc
 50
90.0
 51
98.38255957622365
  0
ARC
  5
14345
330
DCF2
100
AcDbEntity
  8
Ancontension
100
AcDbCircle
 10
2786.008254423501
 20
178.8106375722029
 30
0.0
 40
0.75
100
AcDbArc
 50
98.38255957622365
 51
180.0
  0
LINE
  5
14346
330
DCF2
100
AcDbEntity
  8
Ancontension
100
AcDbLine
 10
2785.898918002696
 20
179.5526251375204
 30
0.0
 11
2787.572967884733
 21
179.7993066601041
 31
0.0
  0
LINE
  5
14347
330
DCF2
100
AcDbEntity
  8
Ancontension
  6
HIDDEN1_01
100
AcDbLine
 10
2821.258254423501
 20
167.5086862485752
 30
0.0
 11
2831.2582544235
 21
167.5086862485749
 31
0.0
  0
LINE
  5
14348
330
DCF2
100
AcDbEntity
  8
Ancontension
  6
HIDDEN1_01
100
AcDbLine
 10
2821.258254423501
 20
168.7586862485753
 30
0.0
 11
2821.258254423501
 21
167.5086862485752
 31
0.0
  0
LINE
  5
14349
330
DCF2
100
AcDbEntity
  8
Ancontension
  6
HIDDEN1_01
100
AcDbLine
 10
2831.2582544235
 20
168.7586862485753
 30
0.0
 11
2831.2582544235
 21
167.508686248575
 31
0.0
  0
ARC
  5
1434B
330
DCF2
100
AcDbEntity
  8
Ancontension
100
AcDbCircle
 10
2793.841589344197
 20
256.5900201916117
 30
0.0
 40
43.0
100
AcDbArc
 50
261.6174404237763
 51
270.0
  0
LINE
  5
1434C
330
DCF2
100
AcDbEntity
  8
Ancontension
100
AcDbLine
 10
2785.898918002695
 20
214.2960813026649
 30
0.0
 11
2787.572967884717
 21
214.0493997800833
 31
0.0
  0
ARC
  5
1434D
330
DCF2
100
AcDbEntity
  8
Ancontension
100
AcDbCircle
 10
2786.008254423501
 20
215.0380688679824
 30
0.0
 40
0.75
100
AcDbArc
 50
180.0
 51
261.6174404237763
  0
ARC
  5
1434F
330
DCF2
100
AcDbEntity
  8
Ancontension
100
AcDbCircle
 10
2858.674919502797
 20
137.2586862485744
 30
0.0
 40
43.0
100
AcDbArc
 50
81.61744042377637
 51
90.0
  0
ARC
  5
14350
330
DCF2
100
AcDbEntity
  8
Ancontension
100
AcDbCircle
 10
2866.508254423502
 20
178.8106375722029
 30
0.0
 40
0.75
100
AcDbArc
 50
0.0
 51
81.61744042377637
  0
LINE
  5
14351
330
DCF2
100
AcDbEntity
  8
Ancontension
100
AcDbLine
 10
2866.617590844306
 20
179.5526251375204
 30
0.0
 11
2864.943540962277
 21
179.7993066601029
 31
0.0
  0
LINE
  5
14352
330
DCF2
100
AcDbEntity
  8
Ancontension
  6
HIDDEN1_01
100
AcDbLine
 10
2867.258254423501
 20
168.7586862485744
 30
0.0
 11
2886.258254423501
 21
168.7586862485744
 31
0.0
  0
ARC
  5
14353
330
DCF2
100
AcDbEntity
  8
Ancontension
100
AcDbCircle
 10
2868.008254423502
 20
178.5896033677588
 30
0.0
 40
0.75
100
AcDbArc
 50
81.61744042377637
 51
180.0
  0
ARC
  5
14354
330
DCF2
100
AcDbEntity
  8
Ancontension
100
AcDbCircle
 10
2858.674919502798
 20
256.5900201916106
 30
0.0
 40
43.0
100
AcDbArc
 50
270.0
 51
278.3825595762236
  0
LINE
  5
14355
330
DCF2
100
AcDbEntity
  8
Ancontension
100
AcDbLine
 10
2866.617590844304
 20
214.2960813026646
 30
0.0
 11
2864.943540962277
 21
214.0493997800821
 31
0.0
  0
ARC
  5
14356
330
DCF2
100
AcDbEntity
  8
Ancontension
100
AcDbCircle
 10
2866.508254423501
 20
215.038068867982
 30
0.0
 40
0.75
100
AcDbArc
 50
278.3825595762236
 51
0.0
  0
ARC
  5
14357
330
DCF2
100
AcDbEntity
  8
Ancontension
100
AcDbCircle
 10
2868.008254423502
 20
215.2591030724261
 30
0.0
 40
0.7500000000001137
100
AcDbArc
 50
180.0000000000064
 51
278.3825595762233
  0
LINE
  5
14358
330
DCF2
100
AcDbEntity
  8
Ancontension
100
AcDbLine
 10
2793.841589344213
 20
256.5900201916117
 30
0.0
 11
2858.674919502798
 21
256.5900201916106
 31
0.0
  0
LINE
  5
14359
330
DCF2
100
AcDbEntity
  8
Ancontension
  6
HIDDEN1_01
100
AcDbLine
 10
2831.2582544235
 20
225.0900201916115
 30
0.0
 11
2867.258254423501
 21
225.0900201916115
 31
0.0
  0
LINE
  5
1435A
330
DCF2
100
AcDbEntity
  8
Ancontension
  6
HIDDEN1_01
100
AcDbLine
 10
2831.2582544235
 20
245.0900201916115
 30
0.0
 11
2867.258254423501
 21
245.0900201916115
 31
0.0
  0
LINE
  5
1435B
330
DCF2
100
AcDbEntity
  8
Ancontension
  6
HIDDEN1_01
100
AcDbLine
 10
2785.258254423501
 20
245.0900201916115
 30
0.0
 11
2821.258254423501
 21
245.0900201916115
 31
0.0
  0
LINE
  5
1435C
330
DCF2
100
AcDbEntity
  8
Ancontension
  6
HIDDEN1_01
100
AcDbLine
 10
2785.258254423501
 20
225.0900201916115
 30
0.0
 11
2821.258254423501
 21
225.0900201916115
 31
0.0
  0
LINE
  5
1435E
330
DCF2
100
AcDbEntity
  8
Ancontension
  6
HIDDEN1_01
100
AcDbLine
 10
2821.258254423501
 20
226.3400201916113
 30
0.0
 11
2831.2582544235
 21
226.3400201916109
 31
0.0
  0
LINE
  5
1435F
330
DCF2
100
AcDbEntity
  8
Ancontension
  6
HIDDEN1_01
100
AcDbLine
 10
2821.258254423501
 20
226.3400201916113
 30
0.0
 11
2821.258254423501
 21
225.0900201916115
 31
0.0
  0
LINE
  5
14360
330
DCF2
100
AcDbEntity
  8
Ancontension
  6
HIDDEN1_01
100
AcDbLine
 10
2831.2582544235
 20
226.3400201916109
 30
0.0
 11
2831.2582544235
 21
225.0900201916115
 31
0.0
  0
LINE
  5
14361
330
DCF2
100
AcDbEntity
  8
Ancontension
  6
HIDDEN1_01
100
AcDbLine
 10
2821.258254423501
 20
243.8400201916113
 30
0.0
 11
2831.2582544235
 21
243.8400201916109
 31
0.0
  0
LINE
  5
14362
330
DCF2
100
AcDbEntity
  8
Ancontension
  6
HIDDEN1_01
100
AcDbLine
 10
2821.258254423501
 20
245.0900201916115
 30
0.0
 11
2821.258254423501
 21
243.8400201916113
 31
0.0
  0
LINE
  5
14363
330
DCF2
100
AcDbEntity
  8
Ancontension
  6
HIDDEN1_01
100
AcDbLine
 10
2831.2582544235
 20
245.0900201916115
 30
0.0
 11
2831.2582544235
 21
243.8400201916109
 31
0.0
  0
ARC
  5
14364
330
DCF2
100
AcDbEntity
  8
Ancontension
100
AcDbCircle
 10
2793.841589344213
 20
213.5900201916116
 30
0.0
 40
43.0
100
AcDbArc
 50
90.0
 51
98.38255957622365
  0
LINE
  5
14365
330
DCF2
100
AcDbEntity
  8
Ancontension
100
AcDbLine
 10
2785.898918002696
 20
255.8839590805564
 30
0.0
 11
2787.572967884733
 21
256.1306406031401
 31
0.0
  0
ARC
  5
14366
330
DCF2
100
AcDbEntity
  8
Ancontension
100
AcDbCircle
 10
2786.008254423501
 20
255.1419715152388
 30
0.0
 40
0.75
100
AcDbArc
 50
98.38255957622365
 51
180.0
  0
LINE
  5
1436A
330
DCF2
100
AcDbEntity
  8
Ancontension
  6
HIDDEN1_01
100
AcDbLine
 10
2886.258254423501
 20
246.0900201916103
 30
0.0
 11
2886.258254423501
 21
224.0900201916104
 31
0.0
  0
LINE
  5
1436B
330
DCF2
100
AcDbEntity
  8
Ancontension
  6
HIDDEN1_01
100
AcDbLine
 10
2867.258254423501
 20
225.0900201916103
 30
0.0
 11
2886.258254423499
 21
225.0900201916103
 31
0.0
  0
LINE
  5
1436C
330
DCF2
100
AcDbEntity
  8
Ancontension
  6
HIDDEN1_01
100
AcDbLine
 10
2867.258254423501
 20
245.0900201916104
 30
0.0
 11
2886.258254423501
 21
245.0900201916104
 31
0.0
  0
ARC
  5
1436E
330
DCF2
100
AcDbEntity
  8
Ancontension
100
AcDbCircle
 10
2858.674919502797
 20
213.5900201916105
 30
0.0
 40
43.0
100
AcDbArc
 50
81.61744042377637
 51
90.0
  0
LINE
  5
1436F
330
DCF2
100
AcDbEntity
  8
Ancontension
100
AcDbLine
 10
2866.617590844306
 20
255.8839590805564
 30
0.0
 11
2864.943540962277
 21
256.1306406031389
 31
0.0
  0
ARC
  5
14370
330
DCF2
100
AcDbEntity
  8
Ancontension
100
AcDbCircle
 10
2866.508254423502
 20
255.1419715152388
 30
0.0
 40
0.75
100
AcDbArc
 50
0.0
 51
81.61744042377637
  0
ARC
  5
14373
330
DCF2
100
AcDbEntity
  8
Ancontension
100
AcDbCircle
 10
2868.008254423502
 20
254.9209373107948
 30
0.0
 40
0.75
100
AcDbArc
 50
81.61744042377637
 51
180.0
  0
ARC
  5
14374
330
DCF2
100
AcDbEntity
  8
Ancontension
100
AcDbCircle
 10
2826.258254423505
 20
272.0361225224265
 30
0.0
 40
12.0
100
AcDbArc
 50
44.99999999999769
 51
135.0000000000022
  0
ARC
  5
14375
330
DCF2
100
AcDbEntity
  8
Ancontension
100
AcDbCircle
 10
2904.508254423501
 20
173.2111043929528
 30
0.0
 40
0.75
100
AcDbArc
 50
0.0
 51
81.61744042377637
  0
LINE
  5
14376
330
DCF2
100
AcDbEntity
  8
Ancontension
100
AcDbLine
 10
2905.258254423501
 20
249.5424383359889
 30
0.0
 11
2905.258254423501
 21
220.637602047232
 31
0.0
  0
ARC
  5
14377
330
DCF2
100
AcDbEntity
  8
Ancontension
100
AcDbCircle
 10
2904.508254423501
 20
220.637602047232
 30
0.0
 40
0.75
100
AcDbArc
 50
278.3825595762236
 51
0.0
  0
ARC
  5
14378
330
DCF2
100
AcDbEntity
  8
Ancontension
100
AcDbCircle
 10
2904.508254423501
 20
249.5424383359889
 30
0.0
 40
0.75
100
AcDbArc
 50
0.0
 51
81.61744042377637
  0
TEXT
  5
1448C
330
DCF2
100
AcDbEntity
  8
Ancontension
100
AcDbText
 10
2814.172441783447
 20
193.4932528556779
 30
0.0
 40
10.0
  1
20
  7
ROMANS
100
AcDbText
  0
LINE
  5
145BC
330
DCF2
100
AcDbEntity
  8
Ancontension
100
AcDbLine
 10
3108.485155023887
 20
248.4037199371264
 30
0.0
 11
3076.922772525772
 21
279.9661024352408
 31
0.0
  0
LINE
  5
145BD
330
DCF2
100
AcDbEntity
  8
Ancontension
100
AcDbLine
 10
3028.38982727918
 20
248.4037199371264
 30
0.0
 11
3059.952209777296
 21
279.9661024352408
 31
0.0
  0
LINE
  5
145C0
330
DCF2
100
AcDbEntity
  8
Ancontension
100
AcDbLine
 10
3031.156170469653
 20
119.3801018861194
 30
0.0
 11
3105.718811833405
 21
119.3801018861202
 31
0.0
  0
LINE
  5
145C1
330
DCF2
100
AcDbEntity
  8
Ancontension
100
AcDbLine
 10
3031.156170469653
 20
171.380101886121
 30
0.0
 11
3105.718811833405
 21
171.3801018861201
 31
0.0
  0
LINE
  5
145C2
330
DCF2
100
AcDbEntity
  8
Ancontension
100
AcDbLine
 10
3031.156170469653
 20
196.4818705715041
 30
0.0
 11
3105.718811833405
 21
196.481870571505
 31
0.0
  0
LINE
  5
145C3
330
DCF2
100
AcDbEntity
  8
Ancontension
100
AcDbLine
 10
3031.156170469653
 20
248.4818705715059
 30
0.0
 11
3105.718811833405
 21
248.4818705715051
 31
0.0
  0
LINE
  5
145C4
330
DCF2
100
AcDbEntity
  8
Ancontension
100
AcDbLine
 10
3028.38982727918
 20
141.38010188612
 30
0.0
 11
3108.485155023889
 21
141.38010188612
 31
0.0
  0
LINE
  5
145C5
330
DCF2
100
AcDbEntity
  8
Ancontension
100
AcDbLine
 10
3028.38982727918
 20
149.3801018861201
 30
0.0
 11
3108.485155023889
 21
149.38010188612
 31
0.0
  0
LINE
  5
145C6
330
DCF2
100
AcDbEntity
  8
Ancontension
  6
HIDDEN1_01
100
AcDbLine
 10
3074.437491151531
 20
210.4818705715063
 30
0.0
 11
3120.437491151532
 21
210.4818705715063
 31
0.0
  0
LINE
  5
145C7
330
DCF2
100
AcDbEntity
  8
Ancontension
  6
HIDDEN1_01
100
AcDbLine
 10
3074.437491151531
 20
234.4818705715062
 30
0.0
 11
3120.437491151533
 21
234.4818705715062
 31
0.0
  0
LINE
  5
145C9
330
DCF2
100
AcDbEntity
  8
Ancontension
  6
HIDDEN1_01
100
AcDbLine
 10
3074.437491151531
 20
133.3801018861212
 30
0.0
 11
3120.437491151532
 21
133.3801018861212
 31
0.0
  0
LINE
  5
145CA
330
DCF2
100
AcDbEntity
  8
Ancontension
  6
HIDDEN1_01
100
AcDbLine
 10
3074.437491151531
 20
157.3801018861213
 30
0.0
 11
3120.437491151533
 21
157.3801018861213
 31
0.0
  0
LINE
  5
145CD
330
DCF2
100
AcDbEntity
  8
Ancontension
100
AcDbLine
 10
2967.437491151533
 20
128.15807814951
 30
0.0
 11
2967.437491151533
 21
162.6021256227303
 31
0.0
  0
LINE
  5
145CE
330
DCF2
100
AcDbEntity
  8
Ancontension
100
AcDbLine
 10
3016.437491151533
 20
122.0244208671126
 30
0.0
 11
3016.437491151533
 21
168.7357829051277
 31
0.0
  0
LINE
  5
145CF
330
DCF2
100
AcDbEntity
  8
Ancontension
  6
HIDDEN1_01
100
AcDbLine
 10
2991.937491151533
 20
158.38010188612
 30
0.0
 11
2991.937491151533
 21
132.38010188612
 31
0.0
  0
LINE
  5
145D0
330
DCF2
100
AcDbEntity
  8
Ancontension
  6
HIDDEN1_01
100
AcDbLine
 10
2991.937491151533
 20
132.38010188612
 30
0.0
 11
2967.437491151533
 21
132.38010188612
 31
0.0
  0
LINE
  5
145D1
330
DCF2
100
AcDbEntity
  8
Ancontension
100
AcDbLine
 10
2968.308085117774
 20
127.1664864601404
 30
0.0
 11
3015.308085117774
 21
121.032829177743
 31
0.0
  0
ARC
  5
145D2
330
DCF2
100
AcDbEntity
  8
Ancontension
100
AcDbCircle
 10
2968.437491151533
 20
128.15807814951
 30
0.0
 40
1.0
100
AcDbArc
 50
180.0
 51
262.5647293619964
  0
ELLIPSE
  5
145D3
330
DCF2
100
AcDbEntity
  8
Ancontension
100
AcDbEllipse
 10
3004.984421049445
 20
129.1166459188294
 30
0.0
 11
2.75
 21
0.0
 31
0.0
210
0.0
220
0.0
230
1.0
 40
0.707106781186543
 41
0.0
 42
6.283185307179585
  0
LINE
  5
145D4
330
DCF2
100
AcDbEntity
  8
Ancontension
  6
HIDDEN1_01
100
AcDbLine
 10
3016.437491151533
 20
133.38010188612
 30
0.0
 11
2991.937491151533
 21
133.38010188612
 31
0.0
  0
ARC
  5
145D5
330
DCF2
100
AcDbEntity
  8
Ancontension
100
AcDbCircle
 10
3015.437491151533
 20
122.0244208671126
 30
0.0
 40
1.00000000000034
100
AcDbArc
 50
262.5647293620485
 51
359.9999999999933
  0
LINE
  5
145D6
330
DCF2
100
AcDbEntity
  8
Ancontension
  6
HIDDEN1_01
100
AcDbLine
 10
2991.937491151533
 20
158.38010188612
 30
0.0
 11
2967.437491151533
 21
158.38010188612
 31
0.0
  0
LINE
  5
145D7
330
DCF2
100
AcDbEntity
  8
Ancontension
100
AcDbLine
 10
2968.308085117774
 20
163.5937173120999
 30
0.0
 11
3015.308085117773
 21
169.7273745944971
 31
0.0
  0
ARC
  5
145D8
330
DCF2
100
AcDbEntity
  8
Ancontension
100
AcDbCircle
 10
2968.437491151533
 20
162.6021256227303
 30
0.0
 40
1.0
100
AcDbArc
 50
97.43527063800364
 51
180.0
  0
ELLIPSE
  5
145D9
330
DCF2
100
AcDbEntity
  8
Ancontension
100
AcDbEllipse
 10
3004.984421049445
 20
161.6435578534108
 30
0.0
 11
2.75
 21
0.0
 31
0.0
210
0.0
220
0.0
230
-1.0
 40
0.707106781186543
 41
0.0
 42
6.283185307179585
  0
LINE
  5
145DA
330
DCF2
100
AcDbEntity
  8
Ancontension
  6
HIDDEN1_01
100
AcDbLine
 10
3016.437491151533
 20
157.38010188612
 30
0.0
 11
2991.937491151533
 21
157.38010188612
 31
0.0
  0
ARC
  5
145DB
330
DCF2
100
AcDbEntity
  8
Ancontension
100
AcDbCircle
 10
3015.437491151533
 20
168.7357829051277
 30
0.0
 40
1.0
100
AcDbArc
 50
0.0
 51
97.43527063800364
  0
LINE
  5
145DC
330
DCF2
100
AcDbEntity
  8
Ancontension
100
AcDbLine
 10
3016.437491151533
 20
121.7634141742445
 30
0.0
 11
3016.437491151532
 21
168.9967895979956
 31
0.0
  0
LINE
  5
145DD
330
DCF2
100
AcDbEntity
  8
Ancontension
  6
HIDDEN1_01
100
AcDbLine
 10
3016.437491151532
 20
133.3801018861212
 30
0.0
 11
3062.437491151532
 21
133.3801018861212
 31
0.0
  0
ARC
  5
145DE
330
DCF2
100
AcDbEntity
  8
Ancontension
100
AcDbCircle
 10
3031.156170469653
 20
168.3801018861201
 30
0.0
 40
49.0
100
AcDbArc
 50
262.5647293619964
 51
270.0
  0
ARC
  5
145DF
330
DCF2
100
AcDbEntity
  8
Ancontension
100
AcDbCircle
 10
3017.437491151533
 20
121.7634141742445
 30
0.0
 40
1.0
100
AcDbArc
 50
180.0
 51
262.5647293619964
  0
LINE
  5
145E0
330
DCF2
100
AcDbEntity
  8
Ancontension
100
AcDbLine
 10
3017.308085117774
 20
120.7718224848752
 30
0.0
 11
3024.81527481547
 21
119.7921091070112
 31
0.0
  0
LINE
  5
145E1
330
DCF2
100
AcDbEntity
  8
Ancontension
100
AcDbLine
 10
3028.38982727918
 20
149.3801018861201
 30
0.0
 11
3028.38982727918
 21
141.38010188612
 31
0.0
  0
LINE
  5
145E2
330
DCF2
100
AcDbEntity
  8
Ancontension
  6
HIDDEN1_01
100
AcDbLine
 10
3062.437491151532
 20
134.8801018861204
 30
0.0
 11
3074.437491151531
 21
134.8801018861204
 31
0.0
  0
LINE
  5
145E3
330
DCF2
100
AcDbEntity
  8
Ancontension
  6
HIDDEN1_01
100
AcDbLine
 10
3062.437491151532
 20
133.3801018861212
 30
0.0
 11
3062.437491151532
 21
134.8801018861206
 31
0.0
  0
LINE
  5
145E4
330
DCF2
100
AcDbEntity
  8
Ancontension
  6
HIDDEN1_01
100
AcDbLine
 10
3074.437491151531
 20
133.3801018861212
 30
0.0
 11
3074.437491151531
 21
134.8801018861204
 31
0.0
  0
LINE
  5
145E5
330
DCF2
100
AcDbEntity
  8
Ancontension
  6
HIDDEN1_01
100
AcDbLine
 10
3064.687491151535
 20
149.3801018861201
 30
0.0
 11
3064.687491151535
 21
141.38010188612
 31
0.0
  0
LINE
  5
145E6
330
DCF2
100
AcDbEntity
  8
Ancontension
  6
HIDDEN1_01
100
AcDbLine
 10
3072.187491151535
 20
149.3801018861201
 30
0.0
 11
3072.187491151535
 21
141.38010188612
 31
0.0
  0
LINE
  5
145E7
330
DCF2
100
AcDbEntity
  8
Ancontension
  6
HIDDEN1_01
100
AcDbLine
 10
3016.437491151533
 20
157.3801018861213
 30
0.0
 11
3062.437491151532
 21
157.3801018861213
 31
0.0
  0
ARC
  5
145E8
330
DCF2
100
AcDbEntity
  8
Ancontension
100
AcDbCircle
 10
3031.156170469653
 20
122.3801018861202
 30
0.0
 40
49.0
100
AcDbArc
 50
90.0
 51
97.43527063800364
  0
ARC
  5
145E9
330
DCF2
100
AcDbEntity
  8
Ancontension
100
AcDbCircle
 10
3017.437491151532
 20
168.9967895979956
 30
0.0
 40
1.0
100
AcDbArc
 50
97.43527063800364
 51
180.0
  0
LINE
  5
145EA
330
DCF2
100
AcDbEntity
  8
Ancontension
100
AcDbLine
 10
3017.308085117774
 20
169.988381287365
 30
0.0
 11
3024.81527481547
 21
170.9680946652291
 31
0.0
  0
LINE
  5
145EB
330
DCF2
100
AcDbEntity
  8
Ancontension
  6
HIDDEN1_01
100
AcDbLine
 10
3062.437491151532
 20
155.8801018861204
 30
0.0
 11
3074.437491151531
 21
155.8801018861204
 31
0.0
  0
LINE
  5
145EC
330
DCF2
100
AcDbEntity
  8
Ancontension
  6
HIDDEN1_01
100
AcDbLine
 10
3062.437491151532
 20
155.8801018861205
 30
0.0
 11
3062.437491151532
 21
157.3801018861213
 31
0.0
  0
LINE
  5
145ED
330
DCF2
100
AcDbEntity
  8
Ancontension
  6
HIDDEN1_01
100
AcDbLine
 10
3074.437491151533
 20
155.8801018861204
 30
0.0
 11
3074.437491151533
 21
157.3801018861213
 31
0.0
  0
LINE
  5
145F0
330
DCF2
100
AcDbEntity
  8
Ancontension
  6
HIDDEN1_01
100
AcDbLine
 10
2991.937491151533
 20
235.481870571505
 30
0.0
 11
2991.937491151533
 21
209.481870571505
 31
0.0
  0
LINE
  5
145F1
330
DCF2
100
AcDbEntity
  8
Ancontension
100
AcDbLine
 10
2967.437491151533
 20
205.259846834895
 30
0.0
 11
2967.437491151533
 21
239.7038943081152
 31
0.0
  0
LINE
  5
145F2
330
DCF2
100
AcDbEntity
  8
Ancontension
100
AcDbLine
 10
3016.437491151533
 20
199.1261895524976
 30
0.0
 11
3016.437491151533
 21
245.8375515905127
 31
0.0
  0
LINE
  5
145F3
330
DCF2
100
AcDbEntity
  8
Ancontension
  6
HIDDEN1_01
100
AcDbLine
 10
2991.937491151533
 20
209.481870571505
 30
0.0
 11
2967.437491151533
 21
209.481870571505
 31
0.0
  0
LINE
  5
145F4
330
DCF2
100
AcDbEntity
  8
Ancontension
100
AcDbLine
 10
2968.308085117774
 20
204.2682551455254
 30
0.0
 11
3015.308085117774
 21
198.1345978631279
 31
0.0
  0
ARC
  5
145F5
330
DCF2
100
AcDbEntity
  8
Ancontension
100
AcDbCircle
 10
2968.437491151533
 20
205.259846834895
 30
0.0
 40
1.0
100
AcDbArc
 50
180.0
 51
262.5647293619964
  0
ELLIPSE
  5
145F6
330
DCF2
100
AcDbEntity
  8
Ancontension
100
AcDbEllipse
 10
3004.984421049445
 20
206.2184146042144
 30
0.0
 11
2.75
 21
0.0
 31
0.0
210
0.0
220
0.0
230
1.0
 40
0.707106781186543
 41
0.0
 42
6.283185307179585
  0
ARC
  5
145F7
330
DCF2
100
AcDbEntity
  8
Ancontension
100
AcDbCircle
 10
3015.437491151533
 20
199.1261895524976
 30
0.0
 40
1.00000000000034
100
AcDbArc
 50
262.5647293620485
 51
359.9999999999933
  0
LINE
  5
145F8
330
DCF2
100
AcDbEntity
  8
Ancontension
  6
HIDDEN1_01
100
AcDbLine
 10
3016.437491151533
 20
210.481870571505
 30
0.0
 11
2991.937491151533
 21
210.481870571505
 31
0.0
  0
LINE
  5
145F9
330
DCF2
100
AcDbEntity
  8
Ancontension
  6
HIDDEN1_01
100
AcDbLine
 10
2991.937491151533
 20
235.481870571505
 30
0.0
 11
2967.437491151533
 21
235.481870571505
 31
0.0
  0
LINE
  5
145FA
330
DCF2
100
AcDbEntity
  8
Ancontension
100
AcDbLine
 10
2968.308085117774
 20
240.6954859974848
 30
0.0
 11
3015.308085117773
 21
246.8291432798823
 31
0.0
  0
ARC
  5
145FB
330
DCF2
100
AcDbEntity
  8
Ancontension
100
AcDbCircle
 10
2968.437491151533
 20
239.7038943081152
 30
0.0
 40
1.0
100
AcDbArc
 50
97.43527063800364
 51
180.0
  0
ELLIPSE
  5
145FC
330
DCF2
100
AcDbEntity
  8
Ancontension
100
AcDbEllipse
 10
3004.984421049445
 20
238.7453265387957
 30
0.0
 11
2.75
 21
0.0
 31
0.0
210
0.0
220
0.0
230
-1.0
 40
0.707106781186543
 41
0.0
 42
6.283185307179585
  0
LINE
  5
145FD
330
DCF2
100
AcDbEntity
  8
Ancontension
  6
HIDDEN1_01
100
AcDbLine
 10
3016.437491151533
 20
234.481870571505
 30
0.0
 11
2991.937491151533
 21
234.481870571505
 31
0.0
  0
ARC
  5
145FE
330
DCF2
100
AcDbEntity
  8
Ancontension
100
AcDbCircle
 10
3015.437491151533
 20
245.8375515905127
 30
0.0
 40
1.0
100
AcDbArc
 50
0.0
 51
97.43527063800364
  0
LINE
  5
145FF
330
DCF2
100
AcDbEntity
  8
Ancontension
100
AcDbLine
 10
3016.437491151533
 20
198.8651828596296
 30
0.0
 11
3016.437491151532
 21
246.0985582833806
 31
0.0
  0
LINE
  5
14602
330
DCF2
100
AcDbEntity
  8
Ancontension
  6
HIDDEN1_01
100
AcDbLine
 10
3016.437491151532
 20
210.4818705715063
 30
0.0
 11
3062.437491151532
 21
210.4818705715063
 31
0.0
  0
ARC
  5
14603
330
DCF2
100
AcDbEntity
  8
Ancontension
100
AcDbCircle
 10
3031.156170469653
 20
245.481870571505
 30
0.0
 40
49.0
100
AcDbArc
 50
262.5647293619964
 51
270.0
  0
LINE
  5
14604
330
DCF2
100
AcDbEntity
  8
Ancontension
100
AcDbLine
 10
3017.308085117774
 20
197.87359117026
 30
0.0
 11
3024.81527481547
 21
196.8938777923963
 31
0.0
  0
ARC
  5
14605
330
DCF2
100
AcDbEntity
  8
Ancontension
100
AcDbCircle
 10
3017.437491151533
 20
198.8651828596296
 30
0.0
 40
1.0
100
AcDbArc
 50
180.0
 51
262.5647293619964
  0
LINE
  5
14606
330
DCF2
100
AcDbEntity
  8
Ancontension
  6
HIDDEN1_01
100
AcDbLine
 10
3062.437491151532
 20
211.9818705715056
 30
0.0
 11
3074.437491151531
 21
211.9818705715056
 31
0.0
  0
LINE
  5
14607
330
DCF2
100
AcDbEntity
  8
Ancontension
  6
HIDDEN1_01
100
AcDbLine
 10
3062.437491151532
 20
210.4818705715063
 30
0.0
 11
3062.437491151532
 21
211.9818705715056
 31
0.0
  0
LINE
  5
14608
330
DCF2
100
AcDbEntity
  8
Ancontension
  6
HIDDEN1_01
100
AcDbLine
 10
3074.437491151531
 20
210.4818705715063
 30
0.0
 11
3074.437491151531
 21
211.9818705715053
 31
0.0
  0
LINE
  5
14609
330
DCF2
100
AcDbEntity
  8
Ancontension
  6
HIDDEN1_01
100
AcDbLine
 10
3016.437491151533
 20
234.4818705715062
 30
0.0
 11
3062.437491151532
 21
234.4818705715062
 31
0.0
  0
ARC
  5
1460A
330
DCF2
100
AcDbEntity
  8
Ancontension
100
AcDbCircle
 10
3031.156170469653
 20
199.481870571505
 30
0.0
 40
49.0
100
AcDbArc
 50
90.0
 51
97.43527063800364
  0
LINE
  5
1460B
330
DCF2
100
AcDbEntity
  8
Ancontension
100
AcDbLine
 10
3017.308085117774
 20
247.09014997275
 30
0.0
 11
3024.81527481547
 21
248.069863350614
 31
0.0
  0
ARC
  5
1460C
330
DCF2
100
AcDbEntity
  8
Ancontension
100
AcDbCircle
 10
3017.437491151532
 20
246.0985582833806
 30
0.0
 40
1.0
100
AcDbArc
 50
97.43527063800364
 51
180.0
  0
LINE
  5
1460D
330
DCF2
100
AcDbEntity
  8
Ancontension
  6
HIDDEN1_01
100
AcDbLine
 10
3062.437491151532
 20
232.9818705715056
 30
0.0
 11
3074.437491151531
 21
232.9818705715053
 31
0.0
  0
LINE
  5
1460E
330
DCF2
100
AcDbEntity
  8
Ancontension
  6
HIDDEN1_01
100
AcDbLine
 10
3062.437491151532
 20
232.9818705715056
 30
0.0
 11
3062.437491151532
 21
234.4818705715062
 31
0.0
  0
LINE
  5
1460F
330
DCF2
100
AcDbEntity
  8
Ancontension
  6
HIDDEN1_01
100
AcDbLine
 10
3074.437491151533
 20
232.9818705715056
 30
0.0
 11
3074.437491151533
 21
234.4818705715062
 31
0.0
  0
LINE
  5
14610
330
DCF2
100
AcDbEntity
  8
Ancontension
  6
HIDDEN1_01
100
AcDbLine
 10
3144.937491151527
 20
158.38010188612
 30
0.0
 11
3169.437491151527
 21
158.38010188612
 31
0.0
  0
LINE
  5
14611
330
DCF2
100
AcDbEntity
  8
Ancontension
100
AcDbLine
 10
3168.566897185285
 20
163.5937173120999
 30
0.0
 11
3121.566897185286
 21
169.7273745944971
 31
0.0
  0
LINE
  5
14612
330
DCF2
100
AcDbEntity
  8
Ancontension
  6
HIDDEN1_01
100
AcDbLine
 10
3144.937491151527
 20
132.38010188612
 30
0.0
 11
3169.437491151527
 21
132.38010188612
 31
0.0
  0
LINE
  5
14613
330
DCF2
100
AcDbEntity
  8
Ancontension
100
AcDbLine
 10
3168.566897185285
 20
127.1664864601404
 30
0.0
 11
3121.566897185285
 21
121.032829177743
 31
0.0
  0
LINE
  5
14614
330
DCF2
100
AcDbEntity
  8
Ancontension
100
AcDbLine
 10
3120.437491151526
 20
121.7634141742445
 30
0.0
 11
3120.437491151527
 21
168.9967895979956
 31
0.0
  0
LINE
  5
14615
330
DCF2
100
AcDbEntity
  8
Ancontension
  6
HIDDEN1_01
100
AcDbLine
 10
3144.937491151527
 20
158.38010188612
 30
0.0
 11
3144.937491151527
 21
132.38010188612
 31
0.0
  0
LINE
  5
14616
330
DCF2
100
AcDbEntity
  8
Ancontension
100
AcDbLine
 10
3120.437491151526
 20
122.0244208671126
 30
0.0
 11
3120.437491151527
 21
168.7357829051277
 31
0.0
  0
LINE
  5
14617
330
DCF2
100
AcDbEntity
  8
Ancontension
100
AcDbLine
 10
3119.566897185285
 20
120.7718224848749
 30
0.0
 11
3112.059707487589
 21
119.7921091070112
 31
0.0
  0
ARC
  5
14618
330
DCF2
100
AcDbEntity
  8
Ancontension
100
AcDbCircle
 10
3105.718811833405
 20
168.3801018861201
 30
0.0
 40
49.0
100
AcDbArc
 50
270.0
 51
277.4352706380036
  0
ARC
  5
14619
330
DCF2
100
AcDbEntity
  8
Ancontension
100
AcDbCircle
 10
3119.437491151526
 20
121.7634141742448
 30
0.0
 40
1.000000000000353
100
AcDbArc
 50
277.4352706380038
 51
359.9999999999803
  0
LINE
  5
1461A
330
DCF2
100
AcDbEntity
  8
Ancontension
100
AcDbLine
 10
3108.485155023889
 20
149.3801018861201
 30
0.0
 11
3108.485155023889
 21
141.38010188612
 31
0.0
  0
LINE
  5
1461C
330
DCF2
100
AcDbEntity
  8
Ancontension
  6
HIDDEN1_01
100
AcDbLine
 10
3120.437491151527
 20
133.38010188612
 30
0.0
 11
3144.937491151527
 21
133.38010188612
 31
0.0
  0
ELLIPSE
  5
1461D
330
DCF2
100
AcDbEntity
  8
Ancontension
100
AcDbEllipse
 10
3131.890561253614
 20
129.1166459188294
 30
0.0
 11
-2.75
 21
0.0
 31
0.0
210
0.0
220
0.0
230
-1.0
 40
0.707106781186543
 41
0.0
 42
6.283185307179585
  0
ARC
  5
1461E
330
DCF2
100
AcDbEntity
  8
Ancontension
100
AcDbCircle
 10
3121.437491151527
 20
122.0244208671126
 30
0.0
 40
1.00000000000034
100
AcDbArc
 50
180.0000000000064
 51
277.4352706379513
  0
LINE
  5
1461F
330
DCF2
100
AcDbEntity
  8
Ancontension
100
AcDbLine
 10
3119.566897185285
 20
169.988381287365
 30
0.0
 11
3112.059707487589
 21
170.9680946652291
 31
0.0
  0
ARC
  5
14620
330
DCF2
100
AcDbEntity
  8
Ancontension
100
AcDbCircle
 10
3105.718811833405
 20
122.3801018861202
 30
0.0
 40
49.0
100
AcDbArc
 50
82.56472936199633
 51
90.0
  0
ARC
  5
14621
330
DCF2
100
AcDbEntity
  8
Ancontension
100
AcDbCircle
 10
3119.437491151527
 20
168.9967895979956
 30
0.0
 40
1.0
100
AcDbArc
 50
0.0
 51
82.56472936199633
  0
LINE
  5
14622
330
DCF2
100
AcDbEntity
  8
Ancontension
  6
HIDDEN1_01
100
AcDbLine
 10
3120.437491151527
 20
157.38010188612
 30
0.0
 11
3144.937491151527
 21
157.38010188612
 31
0.0
  0
ELLIPSE
  5
14623
330
DCF2
100
AcDbEntity
  8
Ancontension
100
AcDbEllipse
 10
3131.890561253614
 20
161.6435578534108
 30
0.0
 11
-2.75
 21
0.0
 31
0.0
210
0.0
220
0.0
230
1.0
 40
0.707106781186543
 41
0.0
 42
6.283185307179585
  0
ARC
  5
14624
330
DCF2
100
AcDbEntity
  8
Ancontension
100
AcDbCircle
 10
3121.437491151527
 20
168.7357829051277
 30
0.0
 40
1.0
100
AcDbArc
 50
82.56472936199633
 51
180.0
  0
LINE
  5
14625
330
DCF2
100
AcDbEntity
  8
Ancontension
100
AcDbLine
 10
3169.437491151527
 20
128.15807814951
 30
0.0
 11
3169.437491151527
 21
162.6021256227303
 31
0.0
  0
ARC
  5
14626
330
DCF2
100
AcDbEntity
  8
Ancontension
100
AcDbCircle
 10
3168.437491151527
 20
128.15807814951
 30
0.0
 40
1.0
100
AcDbArc
 50
277.4352706380036
 51
0.0
  0
ARC
  5
14627
330
DCF2
100
AcDbEntity
  8
Ancontension
100
AcDbCircle
 10
3168.437491151527
 20
162.6021256227303
 30
0.0
 40
1.0
100
AcDbArc
 50
0.0
 51
82.56472936199633
  0
LINE
  5
14628
330
DCF2
100
AcDbEntity
  8
Ancontension
  6
HIDDEN1_01
100
AcDbLine
 10
3144.937491151527
 20
235.481870571505
 30
0.0
 11
3169.437491151527
 21
235.481870571505
 31
0.0
  0
LINE
  5
14629
330
DCF2
100
AcDbEntity
  8
Ancontension
  6
HIDDEN1_01
100
AcDbLine
 10
3144.937491151527
 20
209.481870571505
 30
0.0
 11
3169.437491151527
 21
209.481870571505
 31
0.0
  0
LINE
  5
1462A
330
DCF2
100
AcDbEntity
  8
Ancontension
100
AcDbLine
 10
3168.566897185285
 20
204.2682551455254
 30
0.0
 11
3121.566897185285
 21
198.1345978631279
 31
0.0
  0
LINE
  5
1462B
330
DCF2
100
AcDbEntity
  8
Ancontension
100
AcDbLine
 10
3168.566897185285
 20
240.6954859974848
 30
0.0
 11
3121.566897185286
 21
246.8291432798823
 31
0.0
  0
LINE
  5
1462E
330
DCF2
100
AcDbEntity
  8
Ancontension
100
AcDbLine
 10
3120.437491151526
 20
198.8651828596296
 30
0.0
 11
3120.437491151527
 21
246.0985582833806
 31
0.0
  0
LINE
  5
1462F
330
DCF2
100
AcDbEntity
  8
Ancontension
  6
HIDDEN1_01
100
AcDbLine
 10
3144.937491151527
 20
235.481870571505
 30
0.0
 11
3144.937491151527
 21
209.481870571505
 31
0.0
  0
LINE
  5
14630
330
DCF2
100
AcDbEntity
  8
Ancontension
100
AcDbLine
 10
3120.437491151526
 20
199.1261895524976
 30
0.0
 11
3120.437491151527
 21
245.8375515905127
 31
0.0
  0
LINE
  5
14631
330
DCF2
100
AcDbEntity
  8
Ancontension
100
AcDbLine
 10
3119.566897185285
 20
197.87359117026
 30
0.0
 11
3112.059707487589
 21
196.8938777923963
 31
0.0
  0
ARC
  5
14632
330
DCF2
100
AcDbEntity
  8
Ancontension
100
AcDbCircle
 10
3105.718811833405
 20
245.481870571505
 30
0.0
 40
49.0
100
AcDbArc
 50
270.0
 51
277.4352706380036
  0
ARC
  5
14633
330
DCF2
100
AcDbEntity
  8
Ancontension
100
AcDbCircle
 10
3119.437491151526
 20
198.8651828596298
 30
0.0
 40
1.000000000000353
100
AcDbArc
 50
277.4352706380038
 51
359.9999999999803
  0
ELLIPSE
  5
14634
330
DCF2
100
AcDbEntity
  8
Ancontension
100
AcDbEllipse
 10
3131.890561253614
 20
206.2184146042144
 30
0.0
 11
-2.75
 21
0.0
 31
0.0
210
0.0
220
0.0
230
-1.0
 40
0.707106781186543
 41
0.0
 42
6.283185307179585
  0
ARC
  5
14635
330
DCF2
100
AcDbEntity
  8
Ancontension
100
AcDbCircle
 10
3121.437491151527
 20
199.1261895524976
 30
0.0
 40
1.00000000000034
100
AcDbArc
 50
180.0000000000064
 51
277.4352706379513
  0
LINE
  5
14636
330
DCF2
100
AcDbEntity
  8
Ancontension
  6
HIDDEN1_01
100
AcDbLine
 10
3120.437491151527
 20
210.481870571505
 30
0.0
 11
3144.937491151527
 21
210.481870571505
 31
0.0
  0
LINE
  5
14637
330
DCF2
100
AcDbEntity
  8
Ancontension
100
AcDbLine
 10
3119.566897185285
 20
247.09014997275
 30
0.0
 11
3112.059707487589
 21
248.069863350614
 31
0.0
  0
ARC
  5
1463A
330
DCF2
100
AcDbEntity
  8
Ancontension
100
AcDbCircle
 10
3105.718811833405
 20
199.481870571505
 30
0.0
 40
49.0
100
AcDbArc
 50
82.56472936199633
 51
90.0
  0
ARC
  5
1463B
330
DCF2
100
AcDbEntity
  8
Ancontension
100
AcDbCircle
 10
3119.437491151527
 20
246.0985582833806
 30
0.0
 40
1.0
100
AcDbArc
 50
0.0
 51
82.56472936199633
  0
LINE
  5
1463C
330
DCF2
100
AcDbEntity
  8
Ancontension
  6
HIDDEN1_01
100
AcDbLine
 10
3120.437491151527
 20
234.481870571505
 30
0.0
 11
3144.937491151527
 21
234.481870571505
 31
0.0
  0
ELLIPSE
  5
1463D
330
DCF2
100
AcDbEntity
  8
Ancontension
100
AcDbEllipse
 10
3131.890561253614
 20
238.7453265387957
 30
0.0
 11
-2.75
 21
0.0
 31
0.0
210
0.0
220
0.0
230
1.0
 40
0.707106781186543
 41
0.0
 42
6.283185307179585
  0
ARC
  5
1463E
330
DCF2
100
AcDbEntity
  8
Ancontension
100
AcDbCircle
 10
3121.437491151527
 20
245.8375515905127
 30
0.0
 40
1.0
100
AcDbArc
 50
82.56472936199633
 51
180.0
  0
LINE
  5
1463F
330
DCF2
100
AcDbEntity
  8
Ancontension
100
AcDbLine
 10
3169.437491151527
 20
205.259846834895
 30
0.0
 11
3169.437491151527
 21
239.7038943081152
 31
0.0
  0
ARC
  5
14640
330
DCF2
100
AcDbEntity
  8
Ancontension
100
AcDbCircle
 10
3168.437491151527
 20
205.259846834895
 30
0.0
 40
1.0
100
AcDbArc
 50
277.4352706380036
 51
0.0
  0
ARC
  5
14641
330
DCF2
100
AcDbEntity
  8
Ancontension
100
AcDbCircle
 10
3168.437491151527
 20
239.7038943081152
 30
0.0
 40
1.0
100
AcDbArc
 50
0.0
 51
82.56472936199633
  0
ARC
  5
14642
330
DCF2
100
AcDbEntity
  8
Ancontension
100
AcDbCircle
 10
3068.437491151535
 20
271.480821061002
 30
0.0
 40
12.0
100
AcDbArc
 50
44.99999999999769
 51
135.0000000000022
  0
CIRCLE
  5
14643
330
DCF2
100
AcDbEntity
  8
Ancontension
100
AcDbCircle
 10
3068.437491151535
 20
271.480821061002
 30
0.0
 40
3.75
  0
TEXT
  5
14759
330
DCF2
100
AcDbEntity
  8
Ancontension
100
AcDbText
 10
3056.35167851148
 20
176.3851032355713
 30
0.0
 40
10.0
  1
24
  7
ROMANS
100
AcDbText
  0
LINE
  5
14885
330
DCF2
100
AcDbEntity
  8
Ancontension
100
AcDbLine
 10
3476.798339905041
 20
145.3988680547083
 30
0.0
 11
3476.798339905041
 21
106.9290841439991
 31
0.0
  0
LINE
  5
14886
330
DCF2
100
AcDbEntity
  8
Ancontension
  6
HIDDEN1_01
100
AcDbLine
 10
3449.298339905041
 20
140.6639760993539
 30
0.0
 11
3449.298339905041
 21
111.6639760993537
 31
0.0
  0
LINE
  5
14887
330
DCF2
100
AcDbEntity
  8
Ancontension
100
AcDbLine
 10
3421.798339905042
 20
152.2590200443655
 30
0.0
 11
3421.798339905042
 21
100.0689321543418
 31
0.0
  0
LINE
  5
14888
330
DCF2
100
AcDbEntity
  8
Ancontension
100
AcDbLine
 10
3421.798339905042
 20
152.6547980437688
 30
0.0
 11
3421.798339905042
 21
99.67315415493864
 31
0.0
  0
LINE
  5
14889
330
DCF2
100
AcDbEntity
  8
Ancontension
100
AcDbLine
 10
3304.298339905042
 20
152.2590200443658
 30
0.0
 11
3304.298339905042
 21
100.068932154342
 31
0.0
  0
LINE
  5
1488A
330
DCF2
100
AcDbEntity
  8
Ancontension
100
AcDbLine
 10
3304.298339905042
 20
152.654798043769
 30
0.0
 11
3304.298339905042
 21
99.67315415493864
 31
0.0
  0
LINE
  5
1488B
330
DCF2
100
AcDbEntity
  8
Ancontension
  6
HIDDEN1_01
100
AcDbLine
 10
3276.798339905043
 20
140.6639760993539
 30
0.0
 11
3276.798339905043
 21
111.6639760993539
 31
0.0
  0
LINE
  5
1488C
330
DCF2
100
AcDbEntity
  8
Ancontension
100
AcDbLine
 10
3249.298339905044
 20
145.3988680547083
 30
0.0
 11
3249.298339905044
 21
106.9290841439991
 31
0.0
  0
LINE
  5
1488D
330
DCF2
100
AcDbEntity
  8
Ancontension
100
AcDbLine
 10
3420.494528985953
 20
98.18603955124093
 30
0.0
 11
3416.523908115248
 21
97.66221142304189
 31
0.0
  0
LINE
  5
1488E
330
DCF2
100
AcDbEntity
  8
Ancontension
  6
HIDDEN1_01
100
AcDbLine
 10
3369.798339905043
 20
112.6639760993545
 30
0.0
 11
3421.798339905042
 21
112.6639760993543
 31
0.0
  0
LINE
  5
1488F
330
DCF2
100
AcDbEntity
  8
Ancontension
  6
HIDDEN1_01
100
AcDbLine
 10
3304.298339905042
 20
112.6639760993543
 30
0.0
 11
3356.298339905042
 21
112.6639760993545
 31
0.0
  0
ARC
  5
14890
330
DCF2
100
AcDbEntity
  8
Ancontension
100
AcDbCircle
 10
3317.158749490085
 20
155.1639760993543
 30
0.0
 40
58.0
100
AcDbArc
 50
262.4845970030722
 51
270.0
  0
LINE
  5
14891
330
DCF2
100
AcDbEntity
  8
Ancontension
  6
HIDDEN1_01
100
AcDbLine
 10
3304.298339905042
 20
112.6639760993539
 30
0.0
 11
3276.798339905043
 21
112.6639760993539
 31
0.0
  0
LINE
  5
14892
330
DCF2
100
AcDbEntity
  8
Ancontension
100
AcDbLine
 10
3250.602150824132
 20
105.4419695403014
 30
0.0
 11
3302.602150824131
 21
98.58181755064423
 31
0.0
  0
LINE
  5
14893
330
DCF2
100
AcDbEntity
  8
Ancontension
  6
HIDDEN1_01
100
AcDbLine
 10
3276.798339905043
 20
111.6639760993539
 30
0.0
 11
3249.298339905044
 21
111.6639760993539
 31
0.0
  0
ARC
  5
14894
330
DCF2
100
AcDbEntity
  8
Ancontension
100
AcDbCircle
 10
3250.798339905044
 20
106.9290841439991
 30
0.0
 40
1.5
100
AcDbArc
 50
180.0
 51
262.4845970030722
  0
ARC
  5
14895
330
DCF2
100
AcDbEntity
  8
Ancontension
100
AcDbCircle
 10
3302.798339905042
 20
100.068932154342
 30
0.0
 40
1.5
100
AcDbArc
 50
262.4845970030722
 51
0.0
  0
LINE
  5
14896
330
DCF2
100
AcDbEntity
  8
Ancontension
100
AcDbLine
 10
3305.60215082413
 20
98.18603955124093
 30
0.0
 11
3309.572771694832
 21
97.66221142304244
 31
0.0
  0
ARC
  5
14897
330
DCF2
100
AcDbEntity
  8
Ancontension
100
AcDbCircle
 10
3305.798339905042
 20
99.67315415493864
 30
0.0
 40
1.5
100
AcDbArc
 50
180.0
 51
262.4845970030722
  0
ELLIPSE
  5
14898
330
DCF2
100
AcDbEntity
  8
Ancontension
100
AcDbEllipse
 10
3293.359377973481
 20
107.5226639235496
 30
0.0
 11
2.75
 21
0.0
 31
0.0
210
0.0
220
0.0
230
1.0
 40
0.707106781186543
 41
0.0
 42
6.283185307179585
  0
LINE
  5
14899
330
DCF2
100
AcDbEntity
  8
Ancontension
  6
HIDDEN1_01
100
AcDbLine
 10
3356.298339905042
 20
114.1639760993543
 30
0.0
 11
3369.798339905042
 21
114.1639760993543
 31
0.0
  0
LINE
  5
1489A
330
DCF2
100
AcDbEntity
  8
Ancontension
100
AcDbLine
 10
3317.158749490084
 20
97.16397609935441
 30
0.0
 11
3408.937930319995
 21
97.16397609935391
 31
0.0
  0
LINE
  5
1489B
330
DCF2
100
AcDbEntity
  8
Ancontension
  6
HIDDEN1_01
100
AcDbLine
 10
3356.298339905042
 20
114.1639760993544
 30
0.0
 11
3356.298339905042
 21
112.6639760993545
 31
0.0
  0
ARC
  5
1489C
330
DCF2
100
AcDbEntity
  8
Ancontension
100
AcDbCircle
 10
3408.937930319995
 20
155.1639760993539
 30
0.0
 40
58.0
100
AcDbArc
 50
270.0
 51
277.5154029969277
  0
LINE
  5
1489D
330
DCF2
100
AcDbEntity
  8
Ancontension
  6
HIDDEN1_01
100
AcDbLine
 10
3369.798339905043
 20
114.1639760993544
 30
0.0
 11
3369.798339905043
 21
112.6639760993545
 31
0.0
  0
LINE
  5
1489E
330
DCF2
100
AcDbEntity
  8
Ancontension
100
AcDbLine
 10
3475.494528985953
 20
105.4419695403014
 30
0.0
 11
3423.494528985953
 21
98.58181755064423
 31
0.0
  0
LINE
  5
1489F
330
DCF2
100
AcDbEntity
  8
Ancontension
  6
HIDDEN1_01
100
AcDbLine
 10
3421.798339905042
 20
112.6639760993537
 30
0.0
 11
3449.298339905041
 21
112.6639760993537
 31
0.0
  0
ARC
  5
148A0
330
DCF2
100
AcDbEntity
  8
Ancontension
100
AcDbCircle
 10
3423.298339905042
 20
100.0689321543418
 30
0.0
 40
1.5
100
AcDbArc
 50
180.0
 51
277.5154029969277
  0
ARC
  5
148A1
330
DCF2
100
AcDbEntity
  8
Ancontension
100
AcDbCircle
 10
3420.298339905042
 20
99.67315415493864
 30
0.0
 40
1.5
100
AcDbArc
 50
277.5154029969277
 51
0.0
  0
ELLIPSE
  5
148A2
330
DCF2
100
AcDbEntity
  8
Ancontension
100
AcDbEllipse
 10
3432.737301836604
 20
107.5226639235494
 30
0.0
 11
-2.75
 21
0.0
 31
0.0
210
0.0
220
0.0
230
-1.0
 40
0.707106781186543
 41
0.0
 42
6.283185307179585
  0
LINE
  5
148A3
330
DCF2
100
AcDbEntity
  8
Ancontension
  6
HIDDEN1_01
100
AcDbLine
 10
3449.298339905041
 20
111.6639760993537
 30
0.0
 11
3476.798339905041
 21
111.6639760993537
 31
0.0
  0
ARC
  5
148A4
330
DCF2
100
AcDbEntity
  8
Ancontension
100
AcDbCircle
 10
3475.298339905041
 20
106.9290841439991
 30
0.0
 40
1.5
100
AcDbArc
 50
277.5154029969277
 51
0.0
  0
CIRCLE
  5
148A7
330
DCF2
100
AcDbEntity
  8
Ancontension
100
AcDbCircle
 10
3363.048340125468
 20
265.990164196673
 30
0.0
 40
4.75
  0
LINE
  5
148A8
330
DCF2
100
AcDbEntity
  8
Ancontension
100
AcDbLine
 10
3408.937930319995
 20
241.3137772173183
 30
0.0
 11
3373.654941843267
 21
276.5967659144711
 31
0.0
  0
LINE
  5
148A9
330
DCF2
100
AcDbEntity
  8
Ancontension
100
AcDbLine
 10
3317.158749490092
 20
241.3137772173183
 30
0.0
 11
3352.441738407671
 21
276.5967659144711
 31
0.0
  0
LINE
  5
148AD
330
DCF2
100
AcDbEntity
  8
Ancontension
100
AcDbLine
 10
3420.494528985953
 20
240.2917137654305
 30
0.0
 11
3416.523908115244
 21
240.8155418936301
 31
0.0
  0
LINE
  5
148AE
330
DCF2
100
AcDbEntity
  8
Ancontension
  6
HIDDEN1_01
100
AcDbLine
 10
3369.798339905043
 20
225.8137772173183
 30
0.0
 11
3421.798339905042
 21
225.8137772173185
 31
0.0
  0
LINE
  5
148AF
330
DCF2
100
AcDbEntity
  8
Ancontension
100
AcDbLine
 10
3420.494528985953
 20
184.335840669205
 30
0.0
 11
3416.523908115248
 21
183.8120125410059
 31
0.0
  0
LINE
  5
148B0
330
DCF2
100
AcDbEntity
  8
Ancontension
  6
HIDDEN1_01
100
AcDbLine
 10
3369.798339905043
 20
198.8137772173186
 30
0.0
 11
3421.798339905042
 21
198.8137772173183
 31
0.0
  0
LINE
  5
148B1
330
DCF2
100
AcDbEntity
  8
Ancontension
100
AcDbLine
 10
3420.494528985953
 20
154.1419126474665
 30
0.0
 11
3416.523908115244
 21
154.665740775666
 31
0.0
  0
LINE
  5
148B2
330
DCF2
100
AcDbEntity
  8
Ancontension
  6
HIDDEN1_01
100
AcDbLine
 10
3369.798339905043
 20
139.6639760993543
 30
0.0
 11
3421.798339905042
 21
139.6639760993545
 31
0.0
  0
ELLIPSE
  5
148B4
330
DCF2
100
AcDbEntity
  8
Ancontension
100
AcDbEllipse
 10
3293.359377973481
 20
193.6724650415134
 30
0.0
 11
2.75
 21
0.0
 31
0.0
210
0.0
220
0.0
230
1.0
 40
0.707106781186543
 41
0.0
 42
6.283185307179585
  0
LINE
  5
148B6
330
DCF2
100
AcDbEntity
  8
Ancontension
100
AcDbLine
 10
3304.298339905042
 20
238.8045991617331
 30
0.0
 11
3304.298339905042
 21
185.8229552729025
 31
0.0
  0
LINE
  5
148B8
330
DCF2
100
AcDbEntity
  8
Ancontension
100
AcDbLine
 10
3304.298339905042
 20
238.4088211623296
 30
0.0
 11
3304.298339905042
 21
186.218733272306
 31
0.0
  0
LINE
  5
148B9
330
DCF2
100
AcDbEntity
  8
Ancontension
100
AcDbLine
 10
3249.298339905044
 20
231.5486691726722
 30
0.0
 11
3249.298339905044
 21
193.0788852619631
 31
0.0
  0
ARC
  5
148BB
330
DCF2
100
AcDbEntity
  8
Ancontension
100
AcDbCircle
 10
3317.158749490085
 20
241.3137772173183
 30
0.0
 40
58.0
100
AcDbArc
 50
262.4845970030722
 51
270.0
  0
ARC
  5
148BC
330
DCF2
100
AcDbEntity
  8
Ancontension
100
AcDbCircle
 10
3317.158749490092
 20
97.16397609935441
 30
0.0
 40
58.0
100
AcDbArc
 50
90.0
 51
97.51540299692777
  0
LINE
  5
148BD
330
DCF2
100
AcDbEntity
  8
Ancontension
  6
HIDDEN1_01
100
AcDbLine
 10
3304.298339905042
 20
139.6639760993543
 30
0.0
 11
3356.298339905042
 21
139.6639760993543
 31
0.0
  0
LINE
  5
148BE
330
DCF2
100
AcDbEntity
  8
Ancontension
  6
HIDDEN1_01
100
AcDbLine
 10
3304.298339905042
 20
139.6639760993539
 30
0.0
 11
3276.798339905043
 21
139.6639760993539
 31
0.0
  0
LINE
  5
148BF
330
DCF2
100
AcDbEntity
  8
Ancontension
100
AcDbLine
 10
3250.602150824132
 20
146.885982658406
 30
0.0
 11
3302.602150824131
 21
153.7461346480633
 31
0.0
  0
LINE
  5
148C0
330
DCF2
100
AcDbEntity
  8
Ancontension
  6
HIDDEN1_01
100
AcDbLine
 10
3276.798339905043
 20
140.6639760993539
 30
0.0
 11
3249.298339905044
 21
140.6639760993539
 31
0.0
  0
ARC
  5
148C1
330
DCF2
100
AcDbEntity
  8
Ancontension
100
AcDbCircle
 10
3250.798339905044
 20
145.3988680547083
 30
0.0
 40
1.5
100
AcDbArc
 50
97.51540299692777
 51
180.0
  0
ELLIPSE
  5
148C2
330
DCF2
100
AcDbEntity
  8
Ancontension
100
AcDbEllipse
 10
3293.359377973481
 20
144.805288275158
 30
0.0
 11
2.75
 21
0.0
 31
0.0
210
0.0
220
0.0
230
-1.0
 40
0.707106781186543
 41
0.0
 42
6.283185307179585
  0
ARC
  5
148C3
330
DCF2
100
AcDbEntity
  8
Ancontension
100
AcDbCircle
 10
3302.798339905042
 20
152.2590200443658
 30
0.0
 40
1.5
100
AcDbArc
 50
0.0
 51
97.51540299692777
  0
LINE
  5
148C4
330
DCF2
100
AcDbEntity
  8
Ancontension
100
AcDbLine
 10
3305.60215082413
 20
154.1419126474668
 30
0.0
 11
3309.572771694841
 21
154.6657407756665
 31
0.0
  0
ARC
  5
148C5
330
DCF2
100
AcDbEntity
  8
Ancontension
100
AcDbCircle
 10
3305.798339905043
 20
152.654798043769
 30
0.0
 40
1.5
100
AcDbArc
 50
97.51540299692777
 51
180.0
  0
LINE
  5
148C6
330
DCF2
100
AcDbEntity
  8
Ancontension
100
AcDbLine
 10
3250.602150824132
 20
191.5917706582654
 30
0.0
 11
3302.602150824131
 21
184.7316186686081
 31
0.0
  0
ARC
  5
148C7
330
DCF2
100
AcDbEntity
  8
Ancontension
100
AcDbCircle
 10
3250.798339905044
 20
193.0788852619631
 30
0.0
 40
1.5
100
AcDbArc
 50
180.0
 51
262.4845970030722
  0
ARC
  5
148C8
330
DCF2
100
AcDbEntity
  8
Ancontension
100
AcDbCircle
 10
3302.798339905042
 20
186.218733272306
 30
0.0
 40
1.5
100
AcDbArc
 50
262.4845970030722
 51
0.0
  0
LINE
  5
148C9
330
DCF2
100
AcDbEntity
  8
Ancontension
100
AcDbLine
 10
3305.60215082413
 20
184.335840669205
 30
0.0
 11
3309.572771694832
 21
183.8120125410064
 31
0.0
  0
ARC
  5
148CA
330
DCF2
100
AcDbEntity
  8
Ancontension
100
AcDbCircle
 10
3305.798339905042
 20
185.8229552729025
 30
0.0
 40
1.5
100
AcDbArc
 50
180.0
 51
262.4845970030722
  0
LINE
  5
148CB
330
DCF2
100
AcDbEntity
  8
Ancontension
100
AcDbLine
 10
3317.158749490092
 20
121.1639760993538
 30
0.0
 11
3408.937930319995
 21
121.1639760993536
 31
0.0
  0
LINE
  5
148CC
330
DCF2
100
AcDbEntity
  8
Ancontension
100
AcDbLine
 10
3317.158749490092
 20
131.1639760993539
 30
0.0
 11
3408.937930319995
 21
131.1639760993537
 31
0.0
  0
LINE
  5
148CD
330
DCF2
100
AcDbEntity
  8
Ancontension
100
AcDbLine
 10
3317.158749490092
 20
155.1639760993543
 30
0.0
 11
3408.937930319995
 21
155.1639760993539
 31
0.0
  0
LINE
  5
148CE
330
DCF2
100
AcDbEntity
  8
Ancontension
  6
HIDDEN1_01
100
AcDbLine
 10
3356.298339905042
 20
138.1639760993545
 30
0.0
 11
3369.798339905042
 21
138.1639760993543
 31
0.0
  0
LINE
  5
148CF
330
DCF2
100
AcDbEntity
  8
Ancontension
100
AcDbLine
 10
3317.158749490092
 20
131.1639760993539
 30
0.0
 11
3317.158749490092
 21
121.1639760993538
 31
0.0
  0
LINE
  5
148D0
330
DCF2
100
AcDbEntity
  8
Ancontension
  6
HIDDEN1_01
100
AcDbLine
 10
3358.298340125468
 20
131.1639760993539
 30
0.0
 11
3358.298340125468
 21
121.1639760993537
 31
0.0
  0
LINE
  5
148D1
330
DCF2
100
AcDbEntity
  8
Ancontension
  6
HIDDEN1_01
100
AcDbLine
 10
3356.298339905042
 20
139.6639760993543
 30
0.0
 11
3356.298339905042
 21
138.1639760993542
 31
0.0
  0
LINE
  5
148D2
330
DCF2
100
AcDbEntity
  8
Ancontension
  6
HIDDEN1_01
100
AcDbLine
 10
3367.798340125468
 20
131.1639760993537
 30
0.0
 11
3367.798340125468
 21
121.1639760993537
 31
0.0
  0
LINE
  5
148D3
330
DCF2
100
AcDbEntity
  8
Ancontension
  6
HIDDEN1_01
100
AcDbLine
 10
3369.798339905043
 20
139.6639760993543
 30
0.0
 11
3369.798339905043
 21
138.1639760993545
 31
0.0
  0
LINE
  5
148D4
330
DCF2
100
AcDbEntity
  8
Ancontension
100
AcDbLine
 10
3408.937930319995
 20
131.1639760993537
 30
0.0
 11
3408.937930319995
 21
121.1639760993536
 31
0.0
  0
ARC
  5
148D5
330
DCF2
100
AcDbEntity
  8
Ancontension
100
AcDbCircle
 10
3408.937930319995
 20
97.16397609935405
 30
0.0
 40
58.0
100
AcDbArc
 50
82.48459700307224
 51
90.0
  0
LINE
  5
148D6
330
DCF2
100
AcDbEntity
  8
Ancontension
100
AcDbLine
 10
3317.158749490084
 20
183.3137772173183
 30
0.0
 11
3408.937930319995
 21
183.3137772173179
 31
0.0
  0
ARC
  5
148D7
330
DCF2
100
AcDbEntity
  8
Ancontension
100
AcDbCircle
 10
3408.937930319995
 20
241.3137772173179
 30
0.0
 40
58.0
100
AcDbArc
 50
270.0
 51
277.5154029969277
  0
LINE
  5
148DA
330
DCF2
100
AcDbEntity
  8
Ancontension
  6
HIDDEN1_01
100
AcDbLine
 10
3304.298339905042
 20
225.8137772173183
 30
0.0
 11
3356.298339905042
 21
225.8137772173183
 31
0.0
  0
LINE
  5
148DB
330
DCF2
100
AcDbEntity
  8
Ancontension
  6
HIDDEN1_01
100
AcDbLine
 10
3304.298339905042
 20
198.8137772173183
 30
0.0
 11
3356.298339905042
 21
198.8137772173186
 31
0.0
  0
ARC
  5
148DC
330
DCF2
100
AcDbEntity
  8
Ancontension
100
AcDbCircle
 10
3317.158749490092
 20
183.3137772173183
 30
0.0
 40
58.0
100
AcDbArc
 50
90.0
 51
97.51540299692777
  0
ELLIPSE
  5
148DD
330
DCF2
100
AcDbEntity
  8
Ancontension
100
AcDbEllipse
 10
3293.359377973481
 20
230.9550893931221
 30
0.0
 11
2.75
 21
0.0
 31
0.0
210
0.0
220
0.0
230
-1.0
 40
0.707106781186543
 41
0.0
 42
6.283185307179585
  0
ARC
  5
148DE
330
DCF2
100
AcDbEntity
  8
Ancontension
100
AcDbCircle
 10
3250.798339905044
 20
231.5486691726722
 30
0.0
 40
1.5
100
AcDbArc
 50
97.51540299692777
 51
180.0
  0
LINE
  5
148DF
330
DCF2
100
AcDbEntity
  8
Ancontension
  6
HIDDEN1_01
100
AcDbLine
 10
3304.298339905042
 20
225.8137772173179
 30
0.0
 11
3276.798339905043
 21
225.8137772173179
 31
0.0
  0
LINE
  5
148E0
330
DCF2
100
AcDbEntity
  8
Ancontension
  6
HIDDEN1_01
100
AcDbLine
 10
3304.298339905042
 20
198.8137772173179
 30
0.0
 11
3276.798339905043
 21
198.8137772173179
 31
0.0
  0
LINE
  5
148E1
330
DCF2
100
AcDbEntity
  8
Ancontension
  6
HIDDEN1_01
100
AcDbLine
 10
3276.798339905043
 20
226.8137772173179
 30
0.0
 11
3276.798339905043
 21
197.8137772173179
 31
0.0
  0
LINE
  5
148E2
330
DCF2
100
AcDbEntity
  8
Ancontension
  6
HIDDEN1_01
100
AcDbLine
 10
3276.798339905043
 20
197.8137772173179
 30
0.0
 11
3249.298339905044
 21
197.8137772173179
 31
0.0
  0
LINE
  5
148E3
330
DCF2
100
AcDbEntity
  8
Ancontension
  6
HIDDEN1_01
100
AcDbLine
 10
3276.798339905043
 20
226.8137772173179
 30
0.0
 11
3249.298339905044
 21
226.8137772173179
 31
0.0
  0
LINE
  5
148E5
330
DCF2
100
AcDbEntity
  8
Ancontension
100
AcDbLine
 10
3250.602150824132
 20
233.03578377637
 30
0.0
 11
3302.602150824131
 21
239.8959357660273
 31
0.0
  0
ARC
  5
148E6
330
DCF2
100
AcDbEntity
  8
Ancontension
100
AcDbCircle
 10
3302.798339905042
 20
238.4088211623296
 30
0.0
 40
1.5
100
AcDbArc
 50
0.0
 51
97.51540299692777
  0
LINE
  5
148E7
330
DCF2
100
AcDbEntity
  8
Ancontension
100
AcDbLine
 10
3305.60215082413
 20
240.2917137654307
 30
0.0
 11
3309.572771694841
 21
240.8155418936305
 31
0.0
  0
ARC
  5
148E8
330
DCF2
100
AcDbEntity
  8
Ancontension
100
AcDbCircle
 10
3305.798339905043
 20
238.8045991617331
 30
0.0
 40
1.5
100
AcDbArc
 50
97.51540299692777
 51
180.0
  0
LINE
  5
148E9
330
DCF2
100
AcDbEntity
  8
Ancontension
  6
HIDDEN1_01
100
AcDbLine
 10
3356.298339905042
 20
224.3137772173186
 30
0.0
 11
3369.798339905042
 21
224.3137772173183
 31
0.0
  0
LINE
  5
148EA
330
DCF2
100
AcDbEntity
  8
Ancontension
  6
HIDDEN1_01
100
AcDbLine
 10
3356.298339905042
 20
200.3137772173183
 30
0.0
 11
3369.798339905042
 21
200.3137772173183
 31
0.0
  0
LINE
  5
148EC
330
DCF2
100
AcDbEntity
  8
Ancontension
  6
HIDDEN1_01
100
AcDbLine
 10
3356.298339905042
 20
200.3137772173186
 30
0.0
 11
3356.298339905042
 21
198.8137772173186
 31
0.0
  0
LINE
  5
148ED
330
DCF2
100
AcDbEntity
  8
Ancontension
  6
HIDDEN1_01
100
AcDbLine
 10
3356.298339905042
 20
225.8137772173183
 30
0.0
 11
3356.298339905042
 21
224.313777217318
 31
0.0
  0
LINE
  5
148EE
330
DCF2
100
AcDbEntity
  8
Ancontension
  6
HIDDEN1_01
100
AcDbLine
 10
3369.798339905043
 20
200.3137772173186
 30
0.0
 11
3369.798339905043
 21
198.8137772173186
 31
0.0
  0
LINE
  5
148EF
330
DCF2
100
AcDbEntity
  8
Ancontension
  6
HIDDEN1_01
100
AcDbLine
 10
3369.798339905043
 20
225.8137772173183
 30
0.0
 11
3369.798339905043
 21
224.3137772173186
 31
0.0
  0
LINE
  5
148F1
330
DCF2
100
AcDbEntity
  8
Ancontension
100
AcDbLine
 10
3317.158749490092
 20
241.3137772173183
 30
0.0
 11
3408.937930319995
 21
241.313777217318
 31
0.0
  0
ARC
  5
148F2
330
DCF2
100
AcDbEntity
  8
Ancontension
100
AcDbCircle
 10
3408.937930319995
 20
183.3137772173181
 30
0.0
 40
58.0
100
AcDbArc
 50
82.48459700307224
 51
90.0
  0
ELLIPSE
  5
148F3
330
DCF2
100
AcDbEntity
  8
Ancontension
100
AcDbEllipse
 10
3432.737301836604
 20
193.6724650415133
 30
0.0
 11
-2.75
 21
0.0
 31
0.0
210
0.0
220
0.0
230
-1.0
 40
0.707106781186543
 41
0.0
 42
6.283185307179585
  0
LINE
  5
148F4
330
DCF2
100
AcDbEntity
  8
Ancontension
100
AcDbLine
 10
3476.798339905041
 20
231.5486691726722
 30
0.0
 11
3476.798339905041
 21
193.0788852619631
 31
0.0
  0
LINE
  5
148F5
330
DCF2
100
AcDbEntity
  8
Ancontension
100
AcDbLine
 10
3421.798339905042
 20
238.4088211623294
 30
0.0
 11
3421.798339905042
 21
186.2187332723058
 31
0.0
  0
LINE
  5
148F6
330
DCF2
100
AcDbEntity
  8
Ancontension
100
AcDbLine
 10
3421.798339905042
 20
238.8045991617326
 30
0.0
 11
3421.798339905042
 21
185.8229552729025
 31
0.0
  0
LINE
  5
148F8
330
DCF2
100
AcDbEntity
  8
Ancontension
100
AcDbLine
 10
3475.494528985953
 20
146.885982658406
 30
0.0
 11
3423.494528985953
 21
153.7461346480633
 31
0.0
  0
LINE
  5
148F9
330
DCF2
100
AcDbEntity
  8
Ancontension
  6
HIDDEN1_01
100
AcDbLine
 10
3421.798339905042
 20
139.6639760993539
 30
0.0
 11
3449.298339905041
 21
139.6639760993539
 31
0.0
  0
ARC
  5
148FB
330
DCF2
100
AcDbEntity
  8
Ancontension
100
AcDbCircle
 10
3423.298339905042
 20
152.2590200443655
 30
0.0
 40
1.5
100
AcDbArc
 50
82.48459700307224
 51
180.0
  0
ARC
  5
148FC
330
DCF2
100
AcDbEntity
  8
Ancontension
100
AcDbCircle
 10
3420.298339905042
 20
152.6547980437688
 30
0.0
 40
1.5
100
AcDbArc
 50
0.0
 51
82.48459700307224
  0
ELLIPSE
  5
148FD
330
DCF2
100
AcDbEntity
  8
Ancontension
100
AcDbEllipse
 10
3432.737301836604
 20
144.805288275158
 30
0.0
 11
-2.75
 21
0.0
 31
0.0
210
0.0
220
0.0
230
1.0
 40
0.707106781186543
 41
0.0
 42
6.283185307179585
  0
LINE
  5
148FE
330
DCF2
100
AcDbEntity
  8
Ancontension
  6
HIDDEN1_01
100
AcDbLine
 10
3449.298339905041
 20
140.6639760993537
 30
0.0
 11
3476.798339905041
 21
140.6639760993539
 31
0.0
  0
ARC
  5
148FF
330
DCF2
100
AcDbEntity
  8
Ancontension
100
AcDbCircle
 10
3475.298339905041
 20
145.3988680547083
 30
0.0
 40
1.5
100
AcDbArc
 50
0.0
 51
82.48459700307224
  0
LINE
  5
14900
330
DCF2
100
AcDbEntity
  8
Ancontension
100
AcDbLine
 10
3475.494528985953
 20
191.5917706582654
 30
0.0
 11
3423.494528985953
 21
184.7316186686081
 31
0.0
  0
ARC
  5
14902
330
DCF2
100
AcDbEntity
  8
Ancontension
100
AcDbCircle
 10
3423.298339905042
 20
186.2187332723058
 30
0.0
 40
1.5
100
AcDbArc
 50
180.0
 51
277.5154029969277
  0
ARC
  5
14903
330
DCF2
100
AcDbEntity
  8
Ancontension
100
AcDbCircle
 10
3420.298339905042
 20
185.8229552729025
 30
0.0
 40
1.5
100
AcDbArc
 50
277.5154029969277
 51
0.0
  0
ARC
  5
14904
330
DCF2
100
AcDbEntity
  8
Ancontension
100
AcDbCircle
 10
3475.298339905041
 20
193.0788852619631
 30
0.0
 40
1.5
100
AcDbArc
 50
277.5154029969277
 51
0.0
  0
ELLIPSE
  5
14905
330
DCF2
100
AcDbEntity
  8
Ancontension
100
AcDbEllipse
 10
3432.737301836604
 20
230.9550893931219
 30
0.0
 11
-2.75
 21
0.0
 31
0.0
210
0.0
220
0.0
230
1.0
 40
0.707106781186543
 41
0.0
 42
6.283185307179585
  0
ARC
  5
14906
330
DCF2
100
AcDbEntity
  8
Ancontension
100
AcDbCircle
 10
3475.298339905041
 20
231.5486691726722
 30
0.0
 40
1.5
100
AcDbArc
 50
0.0
 51
82.48459700307224
  0
LINE
  5
14907
330
DCF2
100
AcDbEntity
  8
Ancontension
  6
HIDDEN1_01
100
AcDbLine
 10
3421.798339905042
 20
198.8137772173175
 30
0.0
 11
3449.298339905041
 21
198.8137772173175
 31
0.0
  0
LINE
  5
14908
330
DCF2
100
AcDbEntity
  8
Ancontension
  6
HIDDEN1_01
100
AcDbLine
 10
3421.798339905042
 20
225.8137772173179
 30
0.0
 11
3449.298339905041
 21
225.8137772173179
 31
0.0
  0
LINE
  5
1490A
330
DCF2
100
AcDbEntity
  8
Ancontension
  6
HIDDEN1_01
100
AcDbLine
 10
3449.298339905041
 20
226.8137772173179
 30
0.0
 11
3449.298339905041
 21
197.8137772173177
 31
0.0
  0
LINE
  5
1490B
330
DCF2
100
AcDbEntity
  8
Ancontension
  6
HIDDEN1_01
100
AcDbLine
 10
3449.298339905041
 20
197.8137772173177
 30
0.0
 11
3476.798339905041
 21
197.8137772173177
 31
0.0
  0
LINE
  5
1490C
330
DCF2
100
AcDbEntity
  8
Ancontension
  6
HIDDEN1_01
100
AcDbLine
 10
3449.298339905041
 20
226.8137772173175
 30
0.0
 11
3476.798339905041
 21
226.8137772173179
 31
0.0
  0
LINE
  5
1490D
330
DCF2
100
AcDbEntity
  8
Ancontension
100
AcDbLine
 10
3475.494528985953
 20
233.03578377637
 30
0.0
 11
3423.494528985953
 21
239.8959357660273
 31
0.0
  0
ARC
  5
1490E
330
DCF2
100
AcDbEntity
  8
Ancontension
100
AcDbCircle
 10
3423.298339905042
 20
238.4088211623294
 30
0.0
 40
1.5
100
AcDbArc
 50
82.48459700307224
 51
180.0
  0
ARC
  5
1490F
330
DCF2
100
AcDbEntity
  8
Ancontension
100
AcDbCircle
 10
3420.298339905042
 20
238.8045991617326
 30
0.0
 40
1.5
100
AcDbArc
 50
0.0
 51
82.48459700307224
  0
ARC
  5
14910
330
DCF2
100
AcDbEntity
  8
Ancontension
100
AcDbCircle
 10
3363.048340125468
 20
265.990164196673
 30
0.0
 40
15.0
100
AcDbArc
 50
44.99999999999309
 51
135.0000000000069
  0
TEXT
  5
14A20
330
DCF2
100
AcDbEntity
  8
Ancontension
100
AcDbText
 10
3346.309297363159
 20
163.2170098813849
 30
0.0
 40
10.0
  1
27
  7
ROMANS
100
AcDbText
  0
LINE
  5
14B50
330
DCF2
100
AcDbEntity
  8
Ancontension
  6
HIDDEN1_01
100
AcDbLine
 10
3263.39813757846
 20
-91.03216067473978
 30
0.0
 11
3263.39813757846
 21
-123.0321606747396
 31
0.0
  0
LINE
  5
14B51
330
DCF2
100
AcDbEntity
  8
Ancontension
100
AcDbLine
 10
3293.39813757846
 20
-77.67428071917334
 30
0.0
 11
3293.39813757846
 21
-136.3900406303063
 31
0.0
  0
LINE
  5
14B52
330
DCF2
100
AcDbEntity
  8
Ancontension
100
AcDbLine
 10
3233.39813757846
 20
-85.5882862266335
 30
0.0
 11
3233.39813757846
 21
-128.4760351228462
 31
0.0
  0
LINE
  5
14B53
330
DCF2
100
AcDbEntity
  8
Ancontension
  6
HIDDEN1_01
100
AcDbLine
 10
3263.39813757846
 20
-123.0321606747396
 30
0.0
 11
3233.398137578459
 21
-123.0321606747396
 31
0.0
  0
LINE
  5
14B54
330
DCF2
100
AcDbEntity
  8
Ancontension
100
AcDbLine
 10
3234.691853074141
 20
-129.9617829827732
 30
0.0
 11
3291.691853074143
 21
-137.8757884902335
 31
0.0
  0
ARC
  5
14B55
330
DCF2
100
AcDbEntity
  8
Ancontension
100
AcDbCircle
 10
3234.89813757846
 20
-128.4760351228462
 30
0.0
 40
1.5
100
AcDbArc
 50
180.0
 51
262.0954616580851
  0
LINE
  5
14B56
330
DCF2
100
AcDbEntity
  8
Ancontension
  6
HIDDEN1_01
100
AcDbLine
 10
3293.39813757846
 20
-122.0321606747396
 30
0.0
 11
3263.39813757846
 21
-122.0321606747396
 31
0.0
  0
ELLIPSE
  5
14B57
330
DCF2
100
AcDbEntity
  8
Ancontension
100
AcDbEllipse
 10
3281.163269254092
 20
-127.8082420509365
 30
0.0
 11
2.75
 21
0.0
 31
0.0
210
0.0
220
0.0
230
1.0
 40
0.707106781186543
 41
0.0
 42
6.283185307179585
  0
ARC
  5
14B58
330
DCF2
100
AcDbEntity
  8
Ancontension
100
AcDbCircle
 10
3291.89813757846
 20
-136.3900406303063
 30
0.0
 40
1.5
100
AcDbArc
 50
262.0954616580851
 51
0.0
  0
LINE
  5
14B59
330
DCF2
100
AcDbEntity
  8
Ancontension
100
AcDbLine
 10
3234.691853074141
 20
-84.10253836670632
 30
0.0
 11
3291.691853074142
 21
-76.18853285924615
 31
0.0
  0
LINE
  5
14B5A
330
DCF2
100
AcDbEntity
  8
Ancontension
  6
HIDDEN1_01
100
AcDbLine
 10
3263.39813757846
 20
-91.03216067473978
 30
0.0
 11
3233.398137578459
 21
-91.03216067473978
 31
0.0
  0
ARC
  5
14B5B
330
DCF2
100
AcDbEntity
  8
Ancontension
100
AcDbCircle
 10
3234.89813757846
 20
-85.5882862266335
 30
0.0
 40
1.5
100
AcDbArc
 50
97.90453834191477
 51
180.0
  0
ELLIPSE
  5
14B5C
330
DCF2
100
AcDbEntity
  8
Ancontension
100
AcDbEllipse
 10
3281.163269254092
 20
-86.2560792985433
 30
0.0
 11
2.75
 21
0.0
 31
0.0
210
0.0
220
0.0
230
-1.0
 40
0.707106781186543
 41
0.0
 42
6.283185307179585
  0
LINE
  5
14B5D
330
DCF2
100
AcDbEntity
  8
Ancontension
  6
HIDDEN1_01
100
AcDbLine
 10
3293.39813757846
 20
-92.03216067473976
 30
0.0
 11
3263.39813757846
 21
-92.03216067473976
 31
0.0
  0
ARC
  5
14B5E
330
DCF2
100
AcDbEntity
  8
Ancontension
100
AcDbCircle
 10
3291.89813757846
 20
-77.67428071917334
 30
0.0
 40
1.5
100
AcDbArc
 50
0.0
 51
97.90453834191477
  0
LINE
  5
14B5F
330
DCF2
100
AcDbEntity
  8
Ancontension
  6
HIDDEN1_01
100
AcDbLine
 10
3263.39813757846
 20
11.91157599486405
 30
0.0
 11
3263.39813757846
 21
-20.08842400513594
 31
0.0
  0
LINE
  5
14B60
330
DCF2
100
AcDbEntity
  8
Ancontension
100
AcDbLine
 10
3233.39813757846
 20
17.35545044297032
 30
0.0
 11
3233.39813757846
 21
-25.53229845324244
 31
0.0
  0
LINE
  5
14B61
330
DCF2
100
AcDbEntity
  8
Ancontension
100
AcDbLine
 10
3293.39813757846
 20
25.26945595043048
 30
0.0
 11
3293.39813757846
 21
-33.44630396070261
 31
0.0
  0
LINE
  5
14B62
330
DCF2
100
AcDbEntity
  8
Ancontension
  6
HIDDEN1_01
100
AcDbLine
 10
3263.39813757846
 20
-20.08842400513594
 30
0.0
 11
3233.398137578459
 21
-20.08842400513594
 31
0.0
  0
LINE
  5
14B63
330
DCF2
100
AcDbEntity
  8
Ancontension
100
AcDbLine
 10
3234.691853074141
 20
-27.01804631316941
 30
0.0
 11
3291.691853074143
 21
-34.93205182062979
 31
0.0
  0
ARC
  5
14B64
330
DCF2
100
AcDbEntity
  8
Ancontension
100
AcDbCircle
 10
3234.89813757846
 20
-25.53229845324244
 30
0.0
 40
1.5
100
AcDbArc
 50
180.0
 51
262.0954616580851
  0
ARC
  5
14B65
330
DCF2
100
AcDbEntity
  8
Ancontension
100
AcDbCircle
 10
3291.89813757846
 20
-33.44630396070261
 30
0.0
 40
1.5
100
AcDbArc
 50
262.0954616580851
 51
0.0
  0
LINE
  5
14B66
330
DCF2
100
AcDbEntity
  8
Ancontension
  6
HIDDEN1_01
100
AcDbLine
 10
3293.39813757846
 20
-19.08842400513594
 30
0.0
 11
3263.39813757846
 21
-19.08842400513594
 31
0.0
  0
ELLIPSE
  5
14B67
330
DCF2
100
AcDbEntity
  8
Ancontension
100
AcDbEllipse
 10
3281.163269254092
 20
-24.86450538133277
 30
0.0
 11
2.75
 21
0.0
 31
0.0
210
0.0
220
0.0
230
1.0
 40
0.707106781186543
 41
0.0
 42
6.283185307179585
  0
LINE
  5
14B68
330
DCF2
100
AcDbEntity
  8
Ancontension
100
AcDbLine
 10
3234.691853074141
 20
18.84119830289751
 30
0.0
 11
3291.691853074142
 21
26.75520381035767
 31
0.0
  0
LINE
  5
14B69
330
DCF2
100
AcDbEntity
  8
Ancontension
  6
HIDDEN1_01
100
AcDbLine
 10
3263.39813757846
 20
11.91157599486405
 30
0.0
 11
3233.398137578459
 21
11.91157599486405
 31
0.0
  0
ARC
  5
14B6A
330
DCF2
100
AcDbEntity
  8
Ancontension
100
AcDbCircle
 10
3234.89813757846
 20
17.35545044297032
 30
0.0
 40
1.5
100
AcDbArc
 50
97.90453834191477
 51
180.0
  0
ELLIPSE
  5
14B6B
330
DCF2
100
AcDbEntity
  8
Ancontension
100
AcDbEllipse
 10
3281.163269254092
 20
16.68765737106054
 30
0.0
 11
2.75
 21
0.0
 31
0.0
210
0.0
220
0.0
230
-1.0
 40
0.707106781186543
 41
0.0
 42
6.283185307179585
  0
LINE
  5
14B6C
330
DCF2
100
AcDbEntity
  8
Ancontension
  6
HIDDEN1_01
100
AcDbLine
 10
3293.39813757846
 20
10.91157599486405
 30
0.0
 11
3263.39813757846
 21
10.91157599486405
 31
0.0
  0
ARC
  5
14B6D
330
DCF2
100
AcDbEntity
  8
Ancontension
100
AcDbCircle
 10
3291.89813757846
 20
25.26945595043048
 30
0.0
 40
1.5
100
AcDbArc
 50
0.0
 51
97.90453834191477
  0
LINE
  5
14B6F
330
DCF2
100
AcDbEntity
  8
Ancontension
100
AcDbLine
 10
3403.683699914145
 20
28.4115759948653
 30
0.0
 11
3366.504739296264
 21
65.59053661274528
 31
0.0
  0
LINE
  5
14B70
330
DCF2
100
AcDbEntity
  8
Ancontension
100
AcDbLine
 10
3308.112575242787
 20
28.4115759948653
 30
0.0
 11
3345.291535860666
 21
65.59053661274528
 31
0.0
  0
LINE
  5
14B73
330
DCF2
100
AcDbEntity
  8
Ancontension
100
AcDbLine
 10
3418.398137578462
 20
-77.25775411351776
 30
0.0
 11
3418.39813757846
 21
-136.806567235962
 31
0.0
  0
LINE
  5
14B74
330
DCF2
100
AcDbEntity
  8
Ancontension
100
AcDbLine
 10
3293.398137578462
 20
-77.25775411351766
 30
0.0
 11
3293.39813757846
 21
-136.8065672359622
 31
0.0
  0
LINE
  5
14B75
330
DCF2
100
AcDbEntity
  8
Ancontension
  6
HIDDEN1_01
100
AcDbLine
 10
3348.39813757846
 20
-120.2821606747389
 30
0.0
 11
3363.39813757846
 21
-120.282160674739
 31
0.0
  0
LINE
  5
14B76
330
DCF2
100
AcDbEntity
  8
Ancontension
100
AcDbLine
 10
3308.112575242766
 20
-139.5321606747384
 30
0.0
 11
3403.683699914142
 21
-139.5321606747397
 31
0.0
  0
LINE
  5
14B77
330
DCF2
100
AcDbEntity
  8
Ancontension
100
AcDbLine
 10
3294.69185307414
 20
-138.2923150958893
 30
0.0
 11
3299.173580055628
 21
-138.9145679382472
 31
0.0
  0
ARC
  5
14B78
330
DCF2
100
AcDbEntity
  8
Ancontension
100
AcDbCircle
 10
3308.112575242766
 20
-74.53216067473841
 30
0.0
 40
65.0
100
AcDbArc
 50
262.0954616580851
 51
270.0
  0
LINE
  5
14B79
330
DCF2
100
AcDbEntity
  8
Ancontension
  6
HIDDEN1_01
100
AcDbLine
 10
3293.39813757846
 20
-122.0321606747372
 30
0.0
 11
3348.39813757846
 21
-122.0321606747372
 31
0.0
  0
ARC
  5
14B7A
330
DCF2
100
AcDbEntity
  8
Ancontension
100
AcDbCircle
 10
3294.89813757846
 20
-136.8065672359622
 30
0.0
 40
1.5
100
AcDbArc
 50
180.0
 51
262.0954616580851
  0
LINE
  5
14B7B
330
DCF2
100
AcDbEntity
  8
Ancontension
  6
HIDDEN1_01
100
AcDbLine
 10
3348.398137578461
 20
-120.2821606747389
 30
0.0
 11
3348.398137578461
 21
-122.0321606747372
 31
0.0
  0
LINE
  5
14B7C
330
DCF2
100
AcDbEntity
  8
Ancontension
100
AcDbLine
 10
3417.104422082779
 20
-138.2923150958893
 30
0.0
 11
3412.622695101281
 21
-138.9145679382486
 31
0.0
  0
ARC
  5
14B7D
330
DCF2
100
AcDbEntity
  8
Ancontension
100
AcDbCircle
 10
3403.683699914143
 20
-74.53216067473976
 30
0.0
 40
65.0
100
AcDbArc
 50
270.0
 51
277.9045383419146
  0
LINE
  5
14B7E
330
DCF2
100
AcDbEntity
  8
Ancontension
  6
HIDDEN1_01
100
AcDbLine
 10
3363.39813757846
 20
-122.0321606747372
 30
0.0
 11
3418.39813757846
 21
-122.0321606747372
 31
0.0
  0
LINE
  5
14B7F
330
DCF2
100
AcDbEntity
  8
Ancontension
  6
HIDDEN1_01
100
AcDbLine
 10
3363.39813757846
 20
-120.2821606747392
 30
0.0
 11
3363.39813757846
 21
-122.0321606747372
 31
0.0
  0
ARC
  5
14B80
330
DCF2
100
AcDbEntity
  8
Ancontension
100
AcDbCircle
 10
3416.89813757846
 20
-136.806567235962
 30
0.0
 40
1.5
100
AcDbArc
 50
277.9045383419146
 51
0.0
  0
LINE
  5
14B81
330
DCF2
100
AcDbEntity
  8
Ancontension
100
AcDbLine
 10
3308.112575242787
 20
-112.03216067474
 30
0.0
 11
3403.683699914144
 21
-112.0321606747399
 31
0.0
  0
LINE
  5
14B82
330
DCF2
100
AcDbEntity
  8
Ancontension
100
AcDbLine
 10
3308.112575242787
 20
-102.03216067474
 30
0.0
 11
3403.683699914144
 21
-102.0321606747399
 31
0.0
  0
LINE
  5
14B83
330
DCF2
100
AcDbEntity
  8
Ancontension
  6
HIDDEN1_01
100
AcDbLine
 10
3348.398137578461
 20
-93.78216067473907
 30
0.0
 11
3363.398137578461
 21
-93.78216067473919
 31
0.0
  0
LINE
  5
14B84
330
DCF2
100
AcDbEntity
  8
Ancontension
100
AcDbLine
 10
3308.112575242787
 20
-74.5321606747385
 30
0.0
 11
3403.683699914145
 21
-74.53216067473976
 31
0.0
  0
LINE
  5
14B85
330
DCF2
100
AcDbEntity
  8
Ancontension
  6
HIDDEN1_01
100
AcDbLine
 10
3293.39813757846
 20
-92.03216067473736
 30
0.0
 11
3348.398137578461
 21
-92.0321606747375
 31
0.0
  0
LINE
  5
14B86
330
DCF2
100
AcDbEntity
  8
Ancontension
100
AcDbLine
 10
3308.112575242787
 20
-102.0321606747399
 30
0.0
 11
3308.112575242787
 21
-112.0321606747399
 31
0.0
  0
LINE
  5
14B87
330
DCF2
100
AcDbEntity
  8
Ancontension
  6
HIDDEN1_01
100
AcDbLine
 10
3351.148137578465
 20
-102.03216067474
 30
0.0
 11
3351.148137578465
 21
-112.0321606747399
 31
0.0
  0
LINE
  5
14B88
330
DCF2
100
AcDbEntity
  8
Ancontension
  6
HIDDEN1_01
100
AcDbLine
 10
3348.398137578461
 20
-92.0321606747375
 30
0.0
 11
3348.398137578461
 21
-93.78216067473898
 31
0.0
  0
LINE
  5
14B89
330
DCF2
100
AcDbEntity
  8
Ancontension
100
AcDbLine
 10
3294.691853074142
 20
-75.77200625359058
 30
0.0
 11
3299.173580055647
 21
-75.14975341122976
 31
0.0
  0
ARC
  5
14B8A
330
DCF2
100
AcDbEntity
  8
Ancontension
100
AcDbCircle
 10
3294.898137578461
 20
-77.25775411351766
 30
0.0
 40
1.5
100
AcDbArc
 50
97.90453834191477
 51
180.0
  0
ARC
  5
14B8B
330
DCF2
100
AcDbEntity
  8
Ancontension
100
AcDbCircle
 10
3308.112575242786
 20
-139.5321606747385
 30
0.0
 40
65.0
100
AcDbArc
 50
90.0
 51
97.90453834191477
  0
LINE
  5
14B8C
330
DCF2
100
AcDbEntity
  8
Ancontension
  6
HIDDEN1_01
100
AcDbLine
 10
3363.398137578461
 20
-92.03216067473759
 30
0.0
 11
3418.398137578462
 21
-92.0321606747375
 31
0.0
  0
LINE
  5
14B8D
330
DCF2
100
AcDbEntity
  8
Ancontension
  6
HIDDEN1_01
100
AcDbLine
 10
3360.648137578465
 20
-102.03216067474
 30
0.0
 11
3360.648137578465
 21
-112.0321606747399
 31
0.0
  0
LINE
  5
14B8E
330
DCF2
100
AcDbEntity
  8
Ancontension
  6
HIDDEN1_01
100
AcDbLine
 10
3363.398137578461
 20
-92.03216067473759
 30
0.0
 11
3363.398137578461
 21
-93.78216067473907
 31
0.0
  0
LINE
  5
14B8F
330
DCF2
100
AcDbEntity
  8
Ancontension
100
AcDbLine
 10
3403.683699914144
 20
-102.0321606747399
 30
0.0
 11
3403.683699914145
 21
-112.0321606747399
 31
0.0
  0
ARC
  5
14B90
330
DCF2
100
AcDbEntity
  8
Ancontension
100
AcDbCircle
 10
3403.683699914143
 20
-139.5321606747397
 30
0.0
 40
65.0
100
AcDbArc
 50
82.09546165808525
 51
90.0
  0
LINE
  5
14B91
330
DCF2
100
AcDbEntity
  8
Ancontension
100
AcDbLine
 10
3417.10442208278
 20
-75.77200625359068
 30
0.0
 11
3412.622695101282
 21
-75.14975341123101
 31
0.0
  0
ARC
  5
14B92
330
DCF2
100
AcDbEntity
  8
Ancontension
100
AcDbCircle
 10
3416.898137578462
 20
-77.25775411351776
 30
0.0
 40
1.5
100
AcDbArc
 50
0.0
 51
82.09546165808525
  0
LINE
  5
14B93
330
DCF2
100
AcDbEntity
  8
Ancontension
  6
HIDDEN1_01
100
AcDbLine
 10
3448.398137578461
 20
-91.03216067473978
 30
0.0
 11
3448.398137578461
 21
-123.0321606747396
 31
0.0
  0
LINE
  5
14B94
330
DCF2
100
AcDbEntity
  8
Ancontension
100
AcDbLine
 10
3478.398137578461
 20
-85.5882862266335
 30
0.0
 11
3478.398137578461
 21
-128.4760351228462
 31
0.0
  0
LINE
  5
14B95
330
DCF2
100
AcDbEntity
  8
Ancontension
100
AcDbLine
 10
3418.39813757846
 20
-77.67428071917334
 30
0.0
 11
3418.39813757846
 21
-136.3900406303063
 31
0.0
  0
LINE
  5
14B96
330
DCF2
100
AcDbEntity
  8
Ancontension
  6
HIDDEN1_01
100
AcDbLine
 10
3448.398137578461
 20
-123.0321606747396
 30
0.0
 11
3478.398137578461
 21
-123.0321606747396
 31
0.0
  0
LINE
  5
14B97
330
DCF2
100
AcDbEntity
  8
Ancontension
100
AcDbLine
 10
3477.10442208278
 20
-129.9617829827732
 30
0.0
 11
3420.104422082779
 21
-137.8757884902335
 31
0.0
  0
ELLIPSE
  5
14B98
330
DCF2
100
AcDbEntity
  8
Ancontension
100
AcDbEllipse
 10
3430.633005902829
 20
-127.8082420509365
 30
0.0
 11
-2.75
 21
0.0
 31
0.0
210
0.0
220
0.0
230
-1.0
 40
0.707106781186543
 41
0.0
 42
6.283185307179585
  0
LINE
  5
14B99
330
DCF2
100
AcDbEntity
  8
Ancontension
  6
HIDDEN1_01
100
AcDbLine
 10
3418.39813757846
 20
-122.0321606747396
 30
0.0
 11
3448.398137578461
 21
-122.0321606747396
 31
0.0
  0
ARC
  5
14B9A
330
DCF2
100
AcDbEntity
  8
Ancontension
100
AcDbCircle
 10
3419.89813757846
 20
-136.3900406303063
 30
0.0
 40
1.5
100
AcDbArc
 50
180.0
 51
277.9045383419146
  0
ARC
  5
14B9B
330
DCF2
100
AcDbEntity
  8
Ancontension
100
AcDbCircle
 10
3476.898137578461
 20
-128.4760351228462
 30
0.0
 40
1.5
100
AcDbArc
 50
277.9045383419146
 51
0.0
  0
LINE
  5
14B9C
330
DCF2
100
AcDbEntity
  8
Ancontension
100
AcDbLine
 10
3477.10442208278
 20
-84.10253836670632
 30
0.0
 11
3420.104422082779
 21
-76.18853285924615
 31
0.0
  0
LINE
  5
14B9D
330
DCF2
100
AcDbEntity
  8
Ancontension
  6
HIDDEN1_01
100
AcDbLine
 10
3448.398137578461
 20
-91.03216067473978
 30
0.0
 11
3478.398137578461
 21
-91.03216067473978
 31
0.0
  0
ELLIPSE
  5
14B9E
330
DCF2
100
AcDbEntity
  8
Ancontension
100
AcDbEllipse
 10
3430.633005902829
 20
-86.2560792985433
 30
0.0
 11
-2.75
 21
0.0
 31
0.0
210
0.0
220
0.0
230
1.0
 40
0.707106781186543
 41
0.0
 42
6.283185307179585
  0
LINE
  5
14B9F
330
DCF2
100
AcDbEntity
  8
Ancontension
  6
HIDDEN1_01
100
AcDbLine
 10
3418.39813757846
 20
-92.03216067473976
 30
0.0
 11
3448.398137578461
 21
-92.03216067473976
 31
0.0
  0
ARC
  5
14BA0
330
DCF2
100
AcDbEntity
  8
Ancontension
100
AcDbCircle
 10
3419.89813757846
 20
-77.67428071917334
 30
0.0
 40
1.5
100
AcDbArc
 50
82.09546165808525
 51
180.0
  0
ARC
  5
14BA1
330
DCF2
100
AcDbEntity
  8
Ancontension
100
AcDbCircle
 10
3476.898137578461
 20
-85.5882862266335
 30
0.0
 40
1.5
100
AcDbArc
 50
0.0
 51
82.09546165808525
  0
LINE
  5
14BA4
330
DCF2
100
AcDbEntity
  8
Ancontension
100
AcDbLine
 10
3418.398137578462
 20
25.68598255608605
 30
0.0
 11
3418.39813757846
 21
-33.86283056635829
 31
0.0
  0
LINE
  5
14BA6
330
DCF2
100
AcDbEntity
  8
Ancontension
100
AcDbLine
 10
3293.398137578462
 20
25.68598255608617
 30
0.0
 11
3293.39813757846
 21
-33.86283056635841
 31
0.0
  0
LINE
  5
14BA7
330
DCF2
100
AcDbEntity
  8
Ancontension
  6
HIDDEN1_01
100
AcDbLine
 10
3348.39813757846
 20
-17.33842400513514
 30
0.0
 11
3363.39813757846
 21
-17.33842400513526
 31
0.0
  0
LINE
  5
14BA9
330
DCF2
100
AcDbEntity
  8
Ancontension
100
AcDbLine
 10
3308.112575242766
 20
-36.58842400513457
 30
0.0
 11
3403.683699914142
 21
-36.58842400513595
 31
0.0
  0
ARC
  5
14BAB
330
DCF2
100
AcDbEntity
  8
Ancontension
100
AcDbCircle
 10
3294.89813757846
 20
-33.86283056635841
 30
0.0
 40
1.5
100
AcDbArc
 50
180.0
 51
262.0954616580851
  0
LINE
  5
14BAD
330
DCF2
100
AcDbEntity
  8
Ancontension
100
AcDbLine
 10
3294.69185307414
 20
-35.34857842628547
 30
0.0
 11
3299.173580055628
 21
-35.97083126864346
 31
0.0
  0
ARC
  5
14BAE
330
DCF2
100
AcDbEntity
  8
Ancontension
100
AcDbCircle
 10
3308.112575242766
 20
28.41157599486541
 30
0.0
 40
65.0
100
AcDbArc
 50
262.0954616580851
 51
270.0
  0
LINE
  5
14BAF
330
DCF2
100
AcDbEntity
  8
Ancontension
  6
HIDDEN1_01
100
AcDbLine
 10
3293.39813757846
 20
-19.08842400513356
 30
0.0
 11
3348.39813757846
 21
-19.08842400513356
 31
0.0
  0
LINE
  5
14BB0
330
DCF2
100
AcDbEntity
  8
Ancontension
  6
HIDDEN1_01
100
AcDbLine
 10
3348.398137578461
 20
-17.33842400513514
 30
0.0
 11
3348.398137578461
 21
-19.08842400513344
 31
0.0
  0
ARC
  5
14BB1
330
DCF2
100
AcDbEntity
  8
Ancontension
100
AcDbCircle
 10
3416.89813757846
 20
-33.86283056635829
 30
0.0
 40
1.5
100
AcDbArc
 50
277.9045383419146
 51
0.0
  0
LINE
  5
14BB2
330
DCF2
100
AcDbEntity
  8
Ancontension
100
AcDbLine
 10
3417.104422082779
 20
-35.34857842628547
 30
0.0
 11
3412.622695101281
 21
-35.97083126864481
 31
0.0
  0
ARC
  5
14BB3
330
DCF2
100
AcDbEntity
  8
Ancontension
100
AcDbCircle
 10
3403.683699914143
 20
28.41157599486404
 30
0.0
 40
65.0
100
AcDbArc
 50
270.0
 51
277.9045383419146
  0
LINE
  5
14BB4
330
DCF2
100
AcDbEntity
  8
Ancontension
  6
HIDDEN1_01
100
AcDbLine
 10
3363.39813757846
 20
-19.08842400513356
 30
0.0
 11
3418.39813757846
 21
-19.08842400513356
 31
0.0
  0
LINE
  5
14BB5
330
DCF2
100
AcDbEntity
  8
Ancontension
  6
HIDDEN1_01
100
AcDbLine
 10
3363.39813757846
 20
-17.33842400513537
 30
0.0
 11
3363.39813757846
 21
-19.08842400513344
 31
0.0
  0
LINE
  5
14BB6
330
DCF2
100
AcDbEntity
  8
Ancontension
  6
HIDDEN1_01
100
AcDbLine
 10
3348.398137578461
 20
9.161575994864731
 30
0.0
 11
3363.398137578461
 21
9.161575994864618
 31
0.0
  0
LINE
  5
14BB7
330
DCF2
100
AcDbEntity
  8
Ancontension
100
AcDbLine
 10
3308.112575242787
 20
28.4115759948653
 30
0.0
 11
3403.683699914145
 21
28.41157599486404
 31
0.0
  0
LINE
  5
14BB8
330
DCF2
100
AcDbEntity
  8
Ancontension
  6
HIDDEN1_01
100
AcDbLine
 10
3293.39813757846
 20
10.91157599486644
 30
0.0
 11
3348.398137578461
 21
10.91157599486632
 31
0.0
  0
LINE
  5
14BB9
330
DCF2
100
AcDbEntity
  8
Ancontension
  6
HIDDEN1_01
100
AcDbLine
 10
3348.398137578461
 20
10.91157599486632
 30
0.0
 11
3348.398137578461
 21
9.161575994864847
 31
0.0
  0
LINE
  5
14BBA
330
DCF2
100
AcDbEntity
  8
Ancontension
100
AcDbLine
 10
3294.691853074142
 20
27.17173041601324
 30
0.0
 11
3299.173580055647
 21
27.79398325837405
 31
0.0
  0
ARC
  5
14BBB
330
DCF2
100
AcDbEntity
  8
Ancontension
100
AcDbCircle
 10
3308.112575242786
 20
-36.58842400513469
 30
0.0
 40
65.0
100
AcDbArc
 50
90.0
 51
97.90453834191477
  0
ARC
  5
14BBC
330
DCF2
100
AcDbEntity
  8
Ancontension
100
AcDbCircle
 10
3294.898137578461
 20
25.68598255608617
 30
0.0
 40
1.5
100
AcDbArc
 50
97.90453834191477
 51
180.0
  0
LINE
  5
14BBD
330
DCF2
100
AcDbEntity
  8
Ancontension
  6
HIDDEN1_01
100
AcDbLine
 10
3363.398137578461
 20
10.91157599486621
 30
0.0
 11
3418.398137578462
 21
10.91157599486632
 31
0.0
  0
LINE
  5
14BBE
330
DCF2
100
AcDbEntity
  8
Ancontension
  6
HIDDEN1_01
100
AcDbLine
 10
3363.398137578461
 20
10.91157599486621
 30
0.0
 11
3363.398137578461
 21
9.161575994864731
 31
0.0
  0
LINE
  5
14BBF
330
DCF2
100
AcDbEntity
  8
Ancontension
100
AcDbLine
 10
3417.10442208278
 20
27.17173041601313
 30
0.0
 11
3412.622695101282
 21
27.7939832583728
 31
0.0
  0
ARC
  5
14BC0
330
DCF2
100
AcDbEntity
  8
Ancontension
100
AcDbCircle
 10
3403.683699914143
 20
-36.58842400513595
 30
0.0
 40
65.0
100
AcDbArc
 50
82.09546165808525
 51
90.0
  0
ARC
  5
14BC1
330
DCF2
100
AcDbEntity
  8
Ancontension
100
AcDbCircle
 10
3416.898137578462
 20
25.68598255608605
 30
0.0
 40
1.5
100
AcDbArc
 50
0.0
 51
82.09546165808525
  0
LINE
  5
14BC2
330
DCF2
100
AcDbEntity
  8
Ancontension
  6
HIDDEN1_01
100
AcDbLine
 10
3448.398137578461
 20
11.91157599486405
 30
0.0
 11
3448.398137578461
 21
-20.08842400513594
 31
0.0
  0
LINE
  5
14BC3
330
DCF2
100
AcDbEntity
  8
Ancontension
100
AcDbLine
 10
3418.39813757846
 20
25.26945595043048
 30
0.0
 11
3418.39813757846
 21
-33.44630396070261
 31
0.0
  0
LINE
  5
14BC4
330
DCF2
100
AcDbEntity
  8
Ancontension
100
AcDbLine
 10
3478.398137578461
 20
17.35545044297032
 30
0.0
 11
3478.398137578461
 21
-25.53229845324244
 31
0.0
  0
LINE
  5
14BC5
330
DCF2
100
AcDbEntity
  8
Ancontension
  6
HIDDEN1_01
100
AcDbLine
 10
3448.398137578461
 20
-20.08842400513594
 30
0.0
 11
3478.398137578461
 21
-20.08842400513594
 31
0.0
  0
LINE
  5
14BC6
330
DCF2
100
AcDbEntity
  8
Ancontension
100
AcDbLine
 10
3477.10442208278
 20
-27.01804631316941
 30
0.0
 11
3420.104422082779
 21
-34.93205182062979
 31
0.0
  0
ARC
  5
14BC7
330
DCF2
100
AcDbEntity
  8
Ancontension
100
AcDbCircle
 10
3419.89813757846
 20
-33.44630396070261
 30
0.0
 40
1.5
100
AcDbArc
 50
180.0
 51
277.9045383419146
  0
ELLIPSE
  5
14BC8
330
DCF2
100
AcDbEntity
  8
Ancontension
100
AcDbEllipse
 10
3430.633005902829
 20
-24.86450538133277
 30
0.0
 11
-2.75
 21
0.0
 31
0.0
210
0.0
220
0.0
230
-1.0
 40
0.707106781186543
 41
0.0
 42
6.283185307179585
  0
LINE
  5
14BC9
330
DCF2
100
AcDbEntity
  8
Ancontension
  6
HIDDEN1_01
100
AcDbLine
 10
3418.39813757846
 20
-19.08842400513594
 30
0.0
 11
3448.398137578461
 21
-19.08842400513594
 31
0.0
  0
ARC
  5
14BCA
330
DCF2
100
AcDbEntity
  8
Ancontension
100
AcDbCircle
 10
3476.898137578461
 20
-25.53229845324244
 30
0.0
 40
1.5
100
AcDbArc
 50
277.9045383419146
 51
0.0
  0
LINE
  5
14BCB
330
DCF2
100
AcDbEntity
  8
Ancontension
100
AcDbLine
 10
3477.10442208278
 20
18.84119830289751
 30
0.0
 11
3420.104422082779
 21
26.75520381035767
 31
0.0
  0
LINE
  5
14BCC
330
DCF2
100
AcDbEntity
  8
Ancontension
  6
HIDDEN1_01
100
AcDbLine
 10
3448.398137578461
 20
11.91157599486405
 30
0.0
 11
3478.398137578461
 21
11.91157599486405
 31
0.0
  0
ELLIPSE
  5
14BCD
330
DCF2
100
AcDbEntity
  8
Ancontension
100
AcDbEllipse
 10
3430.633005902829
 20
16.68765737106054
 30
0.0
 11
-2.75
 21
0.0
 31
0.0
210
0.0
220
0.0
230
1.0
 40
0.707106781186543
 41
0.0
 42
6.283185307179585
  0
LINE
  5
14BCE
330
DCF2
100
AcDbEntity
  8
Ancontension
  6
HIDDEN1_01
100
AcDbLine
 10
3418.39813757846
 20
10.91157599486405
 30
0.0
 11
3448.398137578461
 21
10.91157599486405
 31
0.0
  0
ARC
  5
14BCF
330
DCF2
100
AcDbEntity
  8
Ancontension
100
AcDbCircle
 10
3419.89813757846
 20
25.26945595043048
 30
0.0
 40
1.5
100
AcDbArc
 50
82.09546165808525
 51
180.0
  0
ARC
  5
14BD0
330
DCF2
100
AcDbEntity
  8
Ancontension
100
AcDbCircle
 10
3476.898137578461
 20
17.35545044297032
 30
0.0
 40
1.5
100
AcDbArc
 50
0.0
 51
82.09546165808525
  0
CIRCLE
  5
14BD4
330
DCF2
100
AcDbEntity
  8
Ancontension
100
AcDbCircle
 10
3355.898137578465
 20
54.98393489494708
 30
0.0
 40
4.75
  0
ARC
  5
14BD5
330
DCF2
100
AcDbEntity
  8
Ancontension
100
AcDbCircle
 10
3355.898137578465
 20
54.98393489494708
 30
0.0
 40
15.0
100
AcDbArc
 50
44.99999999999309
 51
135.0000000000069
  0
TEXT
  5
14CE6
330
DCF2
100
AcDbEntity
  8
Ancontension
100
AcDbText
 10
3339.159095036572
 20
-56.68519134106849
 30
0.0
 40
10.0
  1
30
  7
ROMANS
100
AcDbText
  0
LINE
  5
14E1D
330
DCF2
100
AcDbEntity
  8
Ancontension
100
AcDbLine
 10
3205.404420855325
 20
-136.1079020789368
 30
0.0
 11
3137.404420855326
 21
-145.4008328005418
 31
0.0
  0
LINE
  5
14E1E
330
DCF2
100
AcDbEntity
  8
Ancontension
100
AcDbLine
 10
3135.701317557717
 20
-143.9146467252134
 30
0.0
 11
3135.701317557717
 21
-72.89251360988271
 31
0.0
  0
LINE
  5
14E1F
330
DCF2
100
AcDbEntity
  8
Ancontension
100
AcDbLine
 10
3135.701317557717
 20
-144.324628962931
 30
0.0
 11
3135.701317557716
 21
-72.482531372165
 31
0.0
  0
LINE
  5
14E20
330
DCF2
100
AcDbEntity
  8
Ancontension
100
AcDbLine
 10
2985.701317557716
 20
-143.9146467252134
 30
0.0
 11
2985.701317557717
 21
-72.89251360988271
 31
0.0
  0
LINE
  5
14E21
330
DCF2
100
AcDbEntity
  8
Ancontension
100
AcDbLine
 10
2985.701317557717
 20
-144.3246289629313
 30
0.0
 11
2985.701317557717
 21
-72.48253137216476
 31
0.0
  0
LINE
  5
14E22
330
DCF2
100
AcDbEntity
  8
Ancontension
100
AcDbLine
 10
2915.998214260106
 20
-136.1079020789368
 30
0.0
 11
2983.998214260107
 21
-145.4008328005418
 31
0.0
  0
LINE
  5
14E23
330
DCF2
100
AcDbEntity
  8
Ancontension
100
AcDbLine
 10
2986.998214260107
 20
-145.8108150382597
 30
0.0
 11
2993.39684058525
 21
-146.6852560846272
 31
0.0
  0
ARC
  5
14E24
330
DCF2
100
AcDbEntity
  8
Ancontension
100
AcDbCircle
 10
2984.201317557716
 20
-143.9146467252134
 30
0.0
 40
1.5
100
AcDbArc
 50
262.218122290889
 51
0.0
  0
ARC
  5
14E25
330
DCF2
100
AcDbEntity
  8
Ancontension
100
AcDbCircle
 10
2987.201317557716
 20
-144.3246289629313
 30
0.0
 40
1.5
100
AcDbArc
 50
180.0
 51
262.218122290889
  0
LINE
  5
14E26
330
DCF2
100
AcDbEntity
  8
Ancontension
100
AcDbLine
 10
3134.404420855326
 20
-145.8108150382595
 30
0.0
 11
3128.005794530178
 21
-146.6852560846275
 31
0.0
  0
LINE
  5
14E27
330
DCF2
100
AcDbEntity
  8
Ancontension
100
AcDbLine
 10
3003.95821206094
 20
-147.4035801675478
 30
0.0
 11
3117.444423054491
 21
-147.403580167548
 31
0.0
  0
ARC
  5
14E28
330
DCF2
100
AcDbEntity
  8
Ancontension
100
AcDbCircle
 10
3003.95821206094
 20
-69.40358016754783
 30
0.0
 40
78.0
100
AcDbArc
 50
262.218122290889
 51
270.0
  0
ARC
  5
14E29
330
DCF2
100
AcDbEntity
  8
Ancontension
100
AcDbCircle
 10
3117.444423054491
 20
-69.40358016754817
 30
0.0
 40
78.0
100
AcDbArc
 50
270.0
 51
277.7818777091108
  0
ARC
  5
14E2A
330
DCF2
100
AcDbEntity
  8
Ancontension
100
AcDbCircle
 10
3134.201317557717
 20
-144.324628962931
 30
0.0
 40
1.5
100
AcDbArc
 50
277.7818777091108
 51
0.0
  0
ARC
  5
14E2B
330
DCF2
100
AcDbEntity
  8
Ancontension
100
AcDbCircle
 10
3137.201317557717
 20
-143.9146467252134
 30
0.0
 40
1.5
100
AcDbArc
 50
180.0
 51
277.7818777091108
  0
LINE
  5
14E2F
330
DCF2
100
AcDbEntity
  8
Ancontension
100
AcDbLine
 10
3117.444423054492
 20
44.55615337875746
 30
0.0
 11
3071.307919454328
 21
90.69265715773395
 31
0.0
  0
LINE
  5
14E30
330
DCF2
100
AcDbEntity
  8
Ancontension
100
AcDbLine
 10
3003.958212060942
 20
44.55615337875746
 30
0.0
 11
3050.094716018731
 21
90.69265715773395
 31
0.0
  0
LINE
  5
14E31
330
DCF2
100
AcDbEntity
  8
Ancontension
100
AcDbLine
 10
2986.998214260107
 20
42.96338824946906
 30
0.0
 11
2993.396840585252
 21
43.83782929583674
 31
0.0
  0
LINE
  5
14E32
330
DCF2
100
AcDbEntity
  8
Ancontension
100
AcDbLine
 10
2986.998214260107
 20
-31.85108149195434
 30
0.0
 11
2993.39684058525
 21
-32.72552253832191
 31
0.0
  0
LINE
  5
14E33
330
DCF2
100
AcDbEntity
  8
Ancontension
100
AcDbLine
 10
2986.998214260107
 20
-70.99634529683635
 30
0.0
 11
2993.396840585252
 21
-70.12190425046867
 31
0.0
  0
LINE
  5
14E35
330
DCF2
100
AcDbEntity
  8
Ancontension
  6
HIDDEN1_02
100
AcDbLine
 10
2985.701317557717
 20
-12.44384662124275
 30
0.0
 11
3051.701317557717
 21
-12.44384662124275
 31
0.0
  0
LINE
  5
14E36
330
DCF2
100
AcDbEntity
  8
Ancontension
  6
HIDDEN1_02
100
AcDbLine
 10
2985.701317557717
 20
23.55615337875723
 30
0.0
 11
3051.701317557717
 21
23.55615337875723
 31
0.0
  0
LINE
  5
14E39
330
DCF2
100
AcDbEntity
  8
Ancontension
  6
HIDDEN1_02
100
AcDbLine
 10
2985.701317557717
 20
-90.40358016754815
 30
0.0
 11
3051.701317557717
 21
-90.40358016754815
 31
0.0
  0
LINE
  5
14E3A
330
DCF2
100
AcDbEntity
  8
Ancontension
  6
HIDDEN1_02
100
AcDbLine
 10
2985.701317557717
 20
-126.403580167548
 30
0.0
 11
3051.701317557717
 21
-126.403580167548
 31
0.0
  0
ELLIPSE
  5
14E3B
330
DCF2
100
AcDbEntity
  8
Ancontension
100
AcDbEllipse
 10
2969.383537457682
 20
-83.65484282601926
 30
0.0
 11
3.25
 21
-0.0000000000003216
 31
0.0
210
0.0
220
0.0
230
-1.0
 40
0.7071067811865971
 41
0.0
 42
6.283185307179585
  0
LINE
  5
14E3C
330
DCF2
100
AcDbEntity
  8
Ancontension
100
AcDbLine
 10
2914.701317557716
 20
-134.6217160036085
 30
0.0
 11
2914.701317557716
 21
-82.1854443314876
 31
0.0
  0
LINE
  5
14E3D
330
DCF2
100
AcDbEntity
  8
Ancontension
  6
HIDDEN1_02
100
AcDbLine
 10
2985.701317557716
 20
-90.40358016754806
 30
0.0
 11
2950.201317557716
 21
-90.40358016754806
 31
0.0
  0
LINE
  5
14E3E
330
DCF2
100
AcDbEntity
  8
Ancontension
  6
HIDDEN1_02
100
AcDbLine
 10
2985.701317557716
 20
-126.403580167548
 30
0.0
 11
2950.201317557716
 21
-126.403580167548
 31
0.0
  0
LINE
  5
14E3F
330
DCF2
100
AcDbEntity
  8
Ancontension
  6
HIDDEN1_02
100
AcDbLine
 10
2950.201317557716
 20
-89.40358016754805
 30
0.0
 11
2950.201317557716
 21
-127.403580167548
 31
0.0
  0
LINE
  5
14E40
330
DCF2
100
AcDbEntity
  8
Ancontension
  6
HIDDEN1_02
100
AcDbLine
 10
2950.201317557716
 20
-127.403580167548
 30
0.0
 11
2914.701317557716
 21
-127.403580167548
 31
0.0
  0
ARC
  5
14E41
330
DCF2
100
AcDbEntity
  8
Ancontension
100
AcDbCircle
 10
2916.201317557716
 20
-134.6217160036085
 30
0.0
 40
1.5
100
AcDbArc
 50
180.0
 51
262.218122290889
  0
LINE
  5
14E42
330
DCF2
100
AcDbEntity
  8
Ancontension
  6
HIDDEN1_02
100
AcDbLine
 10
2950.201317557716
 20
-89.40358016754805
 30
0.0
 11
2914.701317557716
 21
-89.40358016754805
 31
0.0
  0
ELLIPSE
  5
14E43
330
DCF2
100
AcDbEntity
  8
Ancontension
100
AcDbEllipse
 10
2969.383537457682
 20
-133.1523175090767
 30
0.0
 11
3.25
 21
0.0000000000003216
 31
0.0
210
0.0
220
0.0
230
1.0
 40
0.7071067811865971
 41
0.0
 42
6.283185307179585
  0
LINE
  5
14E44
330
DCF2
100
AcDbEntity
  8
Ancontension
100
AcDbLine
 10
2915.998214260106
 20
-80.69925825615916
 30
0.0
 11
2983.998214260107
 21
-71.40632753455418
 31
0.0
  0
ARC
  5
14E45
330
DCF2
100
AcDbEntity
  8
Ancontension
100
AcDbCircle
 10
2916.201317557716
 20
-82.1854443314876
 30
0.0
 40
1.5
100
AcDbArc
 50
97.78187770911085
 51
180.0
  0
ARC
  5
14E46
330
DCF2
100
AcDbEntity
  8
Ancontension
100
AcDbCircle
 10
2984.201317557717
 20
-72.89251360988271
 30
0.0
 40
1.5
100
AcDbArc
 50
0.0
 51
97.78187770911085
  0
ARC
  5
14E47
330
DCF2
100
AcDbEntity
  8
Ancontension
100
AcDbCircle
 10
2987.201317557716
 20
-72.48253137216476
 30
0.0
 40
1.5
100
AcDbArc
 50
97.78187770911085
 51
180.0
  0
LINE
  5
14E49
330
DCF2
100
AcDbEntity
  8
Ancontension
  6
HIDDEN1_02
100
AcDbLine
 10
2950.201317557716
 20
24.55615337875736
 30
0.0
 11
2950.201317557716
 21
-13.44384662124264
 31
0.0
  0
LINE
  5
14E4A
330
DCF2
100
AcDbEntity
  8
Ancontension
100
AcDbLine
 10
2914.701317557716
 20
-20.6619824573031
 30
0.0
 11
2914.701317557716
 21
31.77428921481782
 31
0.0
  0
LINE
  5
14E4B
330
DCF2
100
AcDbEntity
  8
Ancontension
100
AcDbLine
 10
2985.701317557717
 20
-30.36489541662592
 30
0.0
 11
2985.701317557717
 21
41.47720217414064
 31
0.0
  0
LINE
  5
14E4C
330
DCF2
100
AcDbEntity
  8
Ancontension
100
AcDbLine
 10
2985.701317557716
 20
-29.95491317890799
 30
0.0
 11
2985.701317557717
 21
41.0672199364227
 31
0.0
  0
LINE
  5
14E4D
330
DCF2
100
AcDbEntity
  8
Ancontension
  6
HIDDEN1_02
100
AcDbLine
 10
2985.701317557716
 20
-12.44384662124264
 30
0.0
 11
2950.201317557716
 21
-12.44384662124264
 31
0.0
  0
LINE
  5
14E4E
330
DCF2
100
AcDbEntity
  8
Ancontension
100
AcDbLine
 10
2915.998214260106
 20
-22.14816853263152
 30
0.0
 11
2983.998214260107
 21
-31.4410992542364
 31
0.0
  0
LINE
  5
14E4F
330
DCF2
100
AcDbEntity
  8
Ancontension
  6
HIDDEN1_02
100
AcDbLine
 10
2950.201317557716
 20
-13.44384662124264
 30
0.0
 11
2914.701317557716
 21
-13.44384662124264
 31
0.0
  0
ARC
  5
14E50
330
DCF2
100
AcDbEntity
  8
Ancontension
100
AcDbCircle
 10
2916.201317557716
 20
-20.6619824573031
 30
0.0
 40
1.5
100
AcDbArc
 50
180.0
 51
262.218122290889
  0
ELLIPSE
  5
14E51
330
DCF2
100
AcDbEntity
  8
Ancontension
100
AcDbEllipse
 10
2969.383537457682
 20
-19.19258396277142
 30
0.0
 11
3.25
 21
0.0000000000003216
 31
0.0
210
0.0
220
0.0
230
1.0
 40
0.7071067811865971
 41
0.0
 42
6.283185307179585
  0
ARC
  5
14E52
330
DCF2
100
AcDbEntity
  8
Ancontension
100
AcDbCircle
 10
2984.201317557716
 20
-29.95491317890799
 30
0.0
 40
1.5
100
AcDbArc
 50
262.218122290889
 51
0.0
  0
ARC
  5
14E53
330
DCF2
100
AcDbEntity
  8
Ancontension
100
AcDbCircle
 10
2987.201317557716
 20
-30.36489541662592
 30
0.0
 40
1.5
100
AcDbArc
 50
180.0
 51
262.218122290889
  0
LINE
  5
14E54
330
DCF2
100
AcDbEntity
  8
Ancontension
100
AcDbLine
 10
2915.998214260106
 20
33.26047529014624
 30
0.0
 11
2983.998214260107
 21
42.55340601175123
 31
0.0
  0
LINE
  5
14E55
330
DCF2
100
AcDbEntity
  8
Ancontension
  6
HIDDEN1_02
100
AcDbLine
 10
2985.701317557716
 20
23.55615337875736
 30
0.0
 11
2950.201317557716
 21
23.55615337875736
 31
0.0
  0
LINE
  5
14E56
330
DCF2
100
AcDbEntity
  8
Ancontension
  6
HIDDEN1_02
100
AcDbLine
 10
2950.201317557716
 20
24.55615337875736
 30
0.0
 11
2914.701317557716
 21
24.55615337875736
 31
0.0
  0
ARC
  5
14E57
330
DCF2
100
AcDbEntity
  8
Ancontension
100
AcDbCircle
 10
2916.201317557716
 20
31.77428921481782
 30
0.0
 40
1.5
100
AcDbArc
 50
97.78187770911085
 51
180.0
  0
ELLIPSE
  5
14E58
330
DCF2
100
AcDbEntity
  8
Ancontension
100
AcDbEllipse
 10
2969.383537457682
 20
30.30489072028615
 30
0.0
 11
3.25
 21
-0.0000000000003216
 31
0.0
210
0.0
220
0.0
230
-1.0
 40
0.7071067811865971
 41
0.0
 42
6.283185307179585
  0
ARC
  5
14E59
330
DCF2
100
AcDbEntity
  8
Ancontension
100
AcDbCircle
 10
2984.201317557717
 20
41.0672199364227
 30
0.0
 40
1.5
100
AcDbArc
 50
0.0
 51
97.78187770911085
  0
ARC
  5
14E5A
330
DCF2
100
AcDbEntity
  8
Ancontension
100
AcDbCircle
 10
2987.201317557716
 20
41.47720217414064
 30
0.0
 40
1.5
100
AcDbArc
 50
97.78187770911085
 51
180.0
  0
LINE
  5
14E5C
330
DCF2
100
AcDbEntity
  8
Ancontension
100
AcDbLine
 10
3134.404420855324
 20
-70.99634529683658
 30
0.0
 11
3128.005794530182
 21
-70.12190425046878
 31
0.0
  0
LINE
  5
14E5D
330
DCF2
100
AcDbEntity
  8
Ancontension
  6
HIDDEN1_02
100
AcDbLine
 10
3069.701317557717
 20
-90.40358016754815
 30
0.0
 11
3135.701317557717
 21
-90.40358016754815
 31
0.0
  0
LINE
  5
14E5E
330
DCF2
100
AcDbEntity
  8
Ancontension
  6
HIDDEN1_02
100
AcDbLine
 10
3069.701317557717
 20
-126.403580167548
 30
0.0
 11
3135.701317557717
 21
-126.403580167548
 31
0.0
  0
LINE
  5
14E5F
330
DCF2
100
AcDbEntity
  8
Ancontension
100
AcDbLine
 10
3003.958212060942
 20
-113.403580167548
 30
0.0
 11
3117.444423054493
 21
-113.403580167548
 31
0.0
  0
LINE
  5
14E60
330
DCF2
100
AcDbEntity
  8
Ancontension
100
AcDbLine
 10
3003.958212060942
 20
-103.403580167548
 30
0.0
 11
3117.444423054493
 21
-103.403580167548
 31
0.0
  0
LINE
  5
14E61
330
DCF2
100
AcDbEntity
  8
Ancontension
  6
HIDDEN1_02
100
AcDbLine
 10
3051.701317557717
 20
-92.40358016754816
 30
0.0
 11
3069.701317557717
 21
-92.40358016754816
 31
0.0
  0
LINE
  5
14E62
330
DCF2
100
AcDbEntity
  8
Ancontension
  6
HIDDEN1_02
100
AcDbLine
 10
3051.701317557717
 20
-124.403580167548
 30
0.0
 11
3069.701317557717
 21
-124.403580167548
 31
0.0
  0
LINE
  5
14E63
330
DCF2
100
AcDbEntity
  8
Ancontension
  6
HIDDEN1_02
100
AcDbLine
 10
3051.701317557717
 20
-126.403580167548
 30
0.0
 11
3051.701317557717
 21
-124.403580167548
 31
0.0
  0
LINE
  5
14E64
330
DCF2
100
AcDbEntity
  8
Ancontension
100
AcDbLine
 10
3003.958212060942
 20
-103.403580167548
 30
0.0
 11
3003.958212060942
 21
-113.403580167548
 31
0.0
  0
LINE
  5
14E65
330
DCF2
100
AcDbEntity
  8
Ancontension
  6
HIDDEN1_02
100
AcDbLine
 10
3055.95131773653
 20
-103.403580167548
 30
0.0
 11
3055.95131773653
 21
-113.403580167548
 31
0.0
  0
LINE
  5
14E66
330
DCF2
100
AcDbEntity
  8
Ancontension
  6
HIDDEN1_02
100
AcDbLine
 10
3051.701317557717
 20
-92.40358016754816
 30
0.0
 11
3051.701317557717
 21
-90.40358016754828
 31
0.0
  0
LINE
  5
14E67
330
DCF2
100
AcDbEntity
  8
Ancontension
  6
HIDDEN1_02
100
AcDbLine
 10
3069.701317557717
 20
-126.403580167548
 30
0.0
 11
3069.701317557717
 21
-124.403580167548
 31
0.0
  0
LINE
  5
14E68
330
DCF2
100
AcDbEntity
  8
Ancontension
  6
HIDDEN1_02
100
AcDbLine
 10
3065.451317736529
 20
-103.403580167548
 30
0.0
 11
3065.45131773653
 21
-113.403580167548
 31
0.0
  0
LINE
  5
14E69
330
DCF2
100
AcDbEntity
  8
Ancontension
  6
HIDDEN1_02
100
AcDbLine
 10
3069.701317557717
 20
-92.40358016754816
 30
0.0
 11
3069.701317557717
 21
-90.40358016754828
 31
0.0
  0
LINE
  5
14E6A
330
DCF2
100
AcDbEntity
  8
Ancontension
100
AcDbLine
 10
3117.444423054492
 20
-103.403580167548
 30
0.0
 11
3117.444423054492
 21
-113.403580167548
 31
0.0
  0
LINE
  5
14E6B
330
DCF2
100
AcDbEntity
  8
Ancontension
100
AcDbLine
 10
3003.958212060942
 20
-69.40358016754794
 30
0.0
 11
3117.444423054492
 21
-69.40358016754817
 31
0.0
  0
ARC
  5
14E6C
330
DCF2
100
AcDbEntity
  8
Ancontension
100
AcDbCircle
 10
3003.958212060942
 20
-147.4035801675479
 30
0.0
 40
78.0
100
AcDbArc
 50
90.0
 51
97.78187770911085
  0
ARC
  5
14E6D
330
DCF2
100
AcDbEntity
  8
Ancontension
100
AcDbCircle
 10
3117.444423054492
 20
-147.403580167548
 30
0.0
 40
78.0
100
AcDbArc
 50
82.21812229088914
 51
90.0
  0
ELLIPSE
  5
14E6E
330
DCF2
100
AcDbEntity
  8
Ancontension
100
AcDbEllipse
 10
3152.019097657751
 20
-83.65484282601926
 30
0.0
 11
-3.25
 21
-0.0000000000003216
 31
0.0
210
0.0
220
0.0
230
1.0
 40
0.7071067811865971
 41
0.0
 42
6.283185307179585
  0
LINE
  5
14E6F
330
DCF2
100
AcDbEntity
  8
Ancontension
100
AcDbLine
 10
3206.701317557717
 20
-134.6217160036085
 30
0.0
 11
3206.701317557717
 21
-82.1854443314876
 31
0.0
  0
LINE
  5
14E70
330
DCF2
100
AcDbEntity
  8
Ancontension
  6
HIDDEN1_02
100
AcDbLine
 10
3135.701317557717
 20
-90.40358016754806
 30
0.0
 11
3171.201317557717
 21
-90.40358016754806
 31
0.0
  0
LINE
  5
14E71
330
DCF2
100
AcDbEntity
  8
Ancontension
  6
HIDDEN1_02
100
AcDbLine
 10
3135.701317557717
 20
-126.403580167548
 30
0.0
 11
3171.201317557717
 21
-126.403580167548
 31
0.0
  0
ELLIPSE
  5
14E73
330
DCF2
100
AcDbEntity
  8
Ancontension
100
AcDbEllipse
 10
3152.019097657751
 20
-133.1523175090767
 30
0.0
 11
-3.25
 21
0.0000000000003216
 31
0.0
210
0.0
220
0.0
230
-1.0
 40
0.7071067811865971
 41
0.0
 42
6.283185307179585
  0
LINE
  5
14E74
330
DCF2
100
AcDbEntity
  8
Ancontension
  6
HIDDEN1_02
100
AcDbLine
 10
3171.201317557717
 20
-89.40358016754805
 30
0.0
 11
3171.201317557717
 21
-127.403580167548
 31
0.0
  0
LINE
  5
14E75
330
DCF2
100
AcDbEntity
  8
Ancontension
  6
HIDDEN1_02
100
AcDbLine
 10
3171.201317557717
 20
-127.403580167548
 30
0.0
 11
3206.701317557717
 21
-127.403580167548
 31
0.0
  0
ARC
  5
14E76
330
DCF2
100
AcDbEntity
  8
Ancontension
100
AcDbCircle
 10
3205.201317557717
 20
-134.6217160036085
 30
0.0
 40
1.5
100
AcDbArc
 50
277.7818777091108
 51
0.0
  0
LINE
  5
14E77
330
DCF2
100
AcDbEntity
  8
Ancontension
  6
HIDDEN1_02
100
AcDbLine
 10
3171.201317557717
 20
-89.40358016754805
 30
0.0
 11
3206.701317557716
 21
-89.40358016754805
 31
0.0
  0
LINE
  5
14E79
330
DCF2
100
AcDbEntity
  8
Ancontension
100
AcDbLine
 10
3205.404420855325
 20
-80.69925825615916
 30
0.0
 11
3137.404420855326
 21
-71.40632753455418
 31
0.0
  0
ARC
  5
14E7A
330
DCF2
100
AcDbEntity
  8
Ancontension
100
AcDbCircle
 10
3134.201317557716
 20
-72.482531372165
 30
0.0
 40
1.5
100
AcDbArc
 50
0.0
 51
82.21812229088914
  0
ARC
  5
14E7B
330
DCF2
100
AcDbEntity
  8
Ancontension
100
AcDbCircle
 10
3137.201317557717
 20
-72.89251360988271
 30
0.0
 40
1.5
100
AcDbArc
 50
82.21812229088914
 51
180.0
  0
ARC
  5
14E7C
330
DCF2
100
AcDbEntity
  8
Ancontension
100
AcDbCircle
 10
3205.201317557717
 20
-82.1854443314876
 30
0.0
 40
1.5
100
AcDbArc
 50
0.0
 51
82.21812229088914
  0
LINE
  5
14E7E
330
DCF2
100
AcDbEntity
  8
Ancontension
100
AcDbLine
 10
3134.404420855324
 20
42.96338824946883
 30
0.0
 11
3128.005794530182
 21
43.83782929583662
 31
0.0
  0
LINE
  5
14E81
330
DCF2
100
AcDbEntity
  8
Ancontension
  6
HIDDEN1_02
100
AcDbLine
 10
3069.701317557717
 20
-12.44384662124275
 30
0.0
 11
3135.701317557717
 21
-12.44384662124264
 31
0.0
  0
LINE
  5
14E82
330
DCF2
100
AcDbEntity
  8
Ancontension
  6
HIDDEN1_02
100
AcDbLine
 10
3069.701317557717
 20
23.55615337875723
 30
0.0
 11
3135.701317557717
 21
23.55615337875723
 31
0.0
  0
LINE
  5
14E83
330
DCF2
100
AcDbEntity
  8
Ancontension
100
AcDbLine
 10
3134.404420855326
 20
-31.85108149195412
 30
0.0
 11
3128.005794530178
 21
-32.72552253832224
 31
0.0
  0
LINE
  5
14E85
330
DCF2
100
AcDbEntity
  8
Ancontension
  6
HIDDEN1_02
100
AcDbLine
 10
3051.701317557717
 20
-10.44384662124275
 30
0.0
 11
3069.701317557717
 21
-10.44384662124275
 31
0.0
  0
LINE
  5
14E86
330
DCF2
100
AcDbEntity
  8
Ancontension
100
AcDbLine
 10
3003.95821206094
 20
-33.44384662124241
 30
0.0
 11
3117.444423054491
 21
-33.44384662124275
 31
0.0
  0
ARC
  5
14E87
330
DCF2
100
AcDbEntity
  8
Ancontension
100
AcDbCircle
 10
3003.95821206094
 20
44.55615337875758
 30
0.0
 40
78.0
100
AcDbArc
 50
262.218122290889
 51
270.0
  0
LINE
  5
14E88
330
DCF2
100
AcDbEntity
  8
Ancontension
  6
HIDDEN1_02
100
AcDbLine
 10
3051.701317557717
 20
-12.44384662124275
 30
0.0
 11
3051.701317557717
 21
-10.44384662124264
 31
0.0
  0
ARC
  5
14E89
330
DCF2
100
AcDbEntity
  8
Ancontension
100
AcDbCircle
 10
3117.444423054491
 20
44.55615337875723
 30
0.0
 40
78.0
100
AcDbArc
 50
270.0
 51
277.7818777091108
  0
LINE
  5
14E8A
330
DCF2
100
AcDbEntity
  8
Ancontension
  6
HIDDEN1_02
100
AcDbLine
 10
3069.701317557717
 20
-12.44384662124275
 30
0.0
 11
3069.701317557717
 21
-10.44384662124264
 31
0.0
  0
LINE
  5
14E8B
330
DCF2
100
AcDbEntity
  8
Ancontension
  6
HIDDEN1_02
100
AcDbLine
 10
3051.701317557717
 20
21.55615337875723
 30
0.0
 11
3069.701317557717
 21
21.55615337875723
 31
0.0
  0
LINE
  5
14E8C
330
DCF2
100
AcDbEntity
  8
Ancontension
100
AcDbLine
 10
3003.958212060942
 20
44.55615337875746
 30
0.0
 11
3117.444423054492
 21
44.55615337875723
 31
0.0
  0
ARC
  5
14E8D
330
DCF2
100
AcDbEntity
  8
Ancontension
100
AcDbCircle
 10
3003.958212060942
 20
-33.44384662124253
 30
0.0
 40
78.0
100
AcDbArc
 50
90.0
 51
97.78187770911085
  0
LINE
  5
14E8E
330
DCF2
100
AcDbEntity
  8
Ancontension
  6
HIDDEN1_02
100
AcDbLine
 10
3051.701317557717
 20
21.55615337875723
 30
0.0
 11
3051.701317557717
 21
23.55615337875712
 31
0.0
  0
ARC
  5
14E8F
330
DCF2
100
AcDbEntity
  8
Ancontension
100
AcDbCircle
 10
3117.444423054492
 20
-33.44384662124275
 30
0.0
 40
78.0
100
AcDbArc
 50
82.21812229088914
 51
90.0
  0
LINE
  5
14E90
330
DCF2
100
AcDbEntity
  8
Ancontension
  6
HIDDEN1_02
100
AcDbLine
 10
3069.701317557717
 20
21.55615337875723
 30
0.0
 11
3069.701317557717
 21
23.55615337875712
 31
0.0
  0
LINE
  5
14E91
330
DCF2
100
AcDbEntity
  8
Ancontension
100
AcDbLine
 10
3206.701317557717
 20
-20.6619824573031
 30
0.0
 11
3206.701317557717
 21
31.77428921481782
 31
0.0
  0
LINE
  5
14E92
330
DCF2
100
AcDbEntity
  8
Ancontension
  6
HIDDEN1_02
100
AcDbLine
 10
3171.201317557717
 20
24.55615337875736
 30
0.0
 11
3171.201317557717
 21
-13.44384662124264
 31
0.0
  0
LINE
  5
14E94
330
DCF2
100
AcDbEntity
  8
Ancontension
100
AcDbLine
 10
3135.701317557717
 20
-29.95491317890799
 30
0.0
 11
3135.701317557717
 21
41.0672199364227
 31
0.0
  0
LINE
  5
14E95
330
DCF2
100
AcDbEntity
  8
Ancontension
100
AcDbLine
 10
3135.701317557717
 20
-30.3648954166257
 30
0.0
 11
3135.701317557716
 21
41.47720217414041
 31
0.0
  0
LINE
  5
14E97
330
DCF2
100
AcDbEntity
  8
Ancontension
  6
HIDDEN1_02
100
AcDbLine
 10
3135.701317557717
 20
-12.44384662124264
 30
0.0
 11
3171.201317557717
 21
-12.44384662124264
 31
0.0
  0
LINE
  5
14E98
330
DCF2
100
AcDbEntity
  8
Ancontension
100
AcDbLine
 10
3205.404420855325
 20
-22.14816853263152
 30
0.0
 11
3137.404420855326
 21
-31.4410992542364
 31
0.0
  0
ARC
  5
14E99
330
DCF2
100
AcDbEntity
  8
Ancontension
100
AcDbCircle
 10
3134.201317557717
 20
-30.3648954166257
 30
0.0
 40
1.5
100
AcDbArc
 50
277.7818777091108
 51
0.0
  0
ELLIPSE
  5
14E9A
330
DCF2
100
AcDbEntity
  8
Ancontension
100
AcDbEllipse
 10
3152.019097657751
 20
-19.19258396277142
 30
0.0
 11
-3.25
 21
0.0000000000003216
 31
0.0
210
0.0
220
0.0
230
-1.0
 40
0.7071067811865971
 41
0.0
 42
6.283185307179585
  0
ARC
  5
14E9B
330
DCF2
100
AcDbEntity
  8
Ancontension
100
AcDbCircle
 10
3137.201317557717
 20
-29.95491317890799
 30
0.0
 40
1.5
100
AcDbArc
 50
180.0
 51
277.7818777091108
  0
LINE
  5
14E9C
330
DCF2
100
AcDbEntity
  8
Ancontension
  6
HIDDEN1_02
100
AcDbLine
 10
3171.201317557717
 20
-13.44384662124264
 30
0.0
 11
3206.701317557717
 21
-13.44384662124264
 31
0.0
  0
ARC
  5
14E9D
330
DCF2
100
AcDbEntity
  8
Ancontension
100
AcDbCircle
 10
3205.201317557717
 20
-20.6619824573031
 30
0.0
 40
1.5
100
AcDbArc
 50
277.7818777091108
 51
0.0
  0
LINE
  5
14E9E
330
DCF2
100
AcDbEntity
  8
Ancontension
100
AcDbLine
 10
3205.404420855325
 20
33.26047529014624
 30
0.0
 11
3137.404420855326
 21
42.55340601175123
 31
0.0
  0
LINE
  5
14E9F
330
DCF2
100
AcDbEntity
  8
Ancontension
  6
HIDDEN1_02
100
AcDbLine
 10
3135.701317557717
 20
23.55615337875736
 30
0.0
 11
3171.201317557717
 21
23.55615337875736
 31
0.0
  0
ARC
  5
14EA0
330
DCF2
100
AcDbEntity
  8
Ancontension
100
AcDbCircle
 10
3134.201317557716
 20
41.47720217414041
 30
0.0
 40
1.5
100
AcDbArc
 50
0.0
 51
82.21812229088914
  0
ELLIPSE
  5
14EA1
330
DCF2
100
AcDbEntity
  8
Ancontension
100
AcDbEllipse
 10
3152.019097657751
 20
30.30489072028615
 30
0.0
 11
-3.25
 21
-0.0000000000003216
 31
0.0
210
0.0
220
0.0
230
1.0
 40
0.7071067811865971
 41
0.0
 42
6.283185307179585
  0
ARC
  5
14EA2
330
DCF2
100
AcDbEntity
  8
Ancontension
100
AcDbCircle
 10
3137.201317557717
 20
41.0672199364227
 30
0.0
 40
1.5
100
AcDbArc
 50
82.21812229088914
 51
180.0
  0
LINE
  5
14EA3
330
DCF2
100
AcDbEntity
  8
Ancontension
  6
HIDDEN1_02
100
AcDbLine
 10
3171.201317557717
 20
24.55615337875736
 30
0.0
 11
3206.701317557716
 21
24.55615337875736
 31
0.0
  0
ARC
  5
14EA4
330
DCF2
100
AcDbEntity
  8
Ancontension
100
AcDbCircle
 10
3205.201317557717
 20
31.77428921481782
 30
0.0
 40
1.5
100
AcDbArc
 50
0.0
 51
82.21812229088914
  0
CIRCLE
  5
14EA5
330
DCF2
100
AcDbEntity
  8
Ancontension
100
AcDbCircle
 10
3060.70131773653
 20
80.08605543993578
 30
0.0
 40
4.75
  0
ARC
  5
14EA6
330
DCF2
100
AcDbEntity
  8
Ancontension
100
AcDbCircle
 10
3060.70131773653
 20
80.08605543993578
 30
0.0
 40
15.0
100
AcDbArc
 50
44.99999999999309
 51
135.0000000000069
  0
TEXT
  5
14FC6
330
DCF2
100
AcDbEntity
  8
Ancontension
100
AcDbText
 10
3043.962275015834
 20
-53.54061395717589
 30
0.0
 40
10.0
  1
36
  7
ROMANS
100
AcDbText
  0
ARC
  5
150F4
330
DCF2
100
AcDbEntity
  8
Ancontension
100
AcDbCircle
 10
2869.060936232989
 20
-150.8140301891635
 30
0.0
 40
2.0
100
AcDbArc
 50
277.6571812775866
 51
0.0
  0
LINE
  5
150F5
330
DCF2
100
AcDbEntity
  8
Ancontension
100
AcDbLine
 10
2787.06093623299
 20
-161.5695815650463
 30
0.0
 11
2787.06093623299
 21
-79.14334782479318
 31
0.0
  0
LINE
  5
150F6
330
DCF2
100
AcDbEntity
  8
Ancontension
100
AcDbLine
 10
2787.06093623299
 20
-162.1073591338404
 30
0.0
 11
2787.060936232988
 21
-78.60557025599906
 31
0.0
  0
ARC
  5
150F7
330
DCF2
100
AcDbEntity
  8
Ancontension
100
AcDbCircle
 10
2532.060936232989
 20
-150.8140301891635
 30
0.0
 40
2.0
100
AcDbArc
 50
180.0
 51
262.3428187224131
  0
LINE
  5
150F8
330
DCF2
100
AcDbEntity
  8
Ancontension
100
AcDbLine
 10
2614.06093623299
 20
-162.1073591338405
 30
0.0
 11
2614.060936232988
 21
-78.60557025599894
 31
0.0
  0
LINE
  5
150F9
330
DCF2
100
AcDbEntity
  8
Ancontension
100
AcDbLine
 10
2614.06093623299
 20
-161.5695815650463
 30
0.0
 11
2614.06093623299
 21
-79.14334782479318
 31
0.0
  0
ARC
  5
150FA
330
DCF2
100
AcDbEntity
  8
Ancontension
100
AcDbCircle
 10
2769.881004004766
 20
-75.35646469491962
 30
0.0
 40
90.0
100
AcDbArc
 50
270.0
 51
277.6571812775866
  0
LINE
  5
150FB
330
DCF2
100
AcDbEntity
  8
Ancontension
100
AcDbLine
 10
2531.794445115212
 20
-152.796196298284
 30
0.0
 11
2611.794445115211
 21
-163.5517476741668
 31
0.0
  0
ARC
  5
150FC
330
DCF2
100
AcDbEntity
  8
Ancontension
100
AcDbCircle
 10
2612.060936232988
 20
-161.5695815650463
 30
0.0
 40
2.0
100
AcDbArc
 50
262.3428187224131
 51
0.0
  0
LINE
  5
150FD
330
DCF2
100
AcDbEntity
  8
Ancontension
100
AcDbLine
 10
2631.240868461218
 20
-165.3564646949203
 30
0.0
 11
2769.881004004766
 21
-165.3564646949195
 31
0.0
  0
LINE
  5
150FE
330
DCF2
100
AcDbEntity
  8
Ancontension
100
AcDbLine
 10
2615.794445115212
 20
-164.089525242961
 30
0.0
 11
2619.248768161243
 21
-164.5539396053421
 31
0.0
  0
ARC
  5
150FF
330
DCF2
100
AcDbEntity
  8
Ancontension
100
AcDbCircle
 10
2616.060936232988
 20
-162.1073591338405
 30
0.0
 40
2.0
100
AcDbArc
 50
180.0
 51
262.3428187224131
  0
ARC
  5
15100
330
DCF2
100
AcDbEntity
  8
Ancontension
100
AcDbCircle
 10
2631.240868461218
 20
-75.3564646949203
 30
0.0
 40
90.0
100
AcDbArc
 50
262.3428187224131
 51
270.0
  0
LINE
  5
15101
330
DCF2
100
AcDbEntity
  8
Ancontension
100
AcDbLine
 10
2869.327427350766
 20
-152.796196298284
 30
0.0
 11
2789.327427350766
 21
-163.5517476741668
 31
0.0
  0
LINE
  5
15102
330
DCF2
100
AcDbEntity
  8
Ancontension
100
AcDbLine
 10
2785.327427350765
 20
-164.0895252429609
 30
0.0
 11
2781.873104304742
 21
-164.5539396053413
 31
0.0
  0
ARC
  5
15103
330
DCF2
100
AcDbEntity
  8
Ancontension
100
AcDbCircle
 10
2785.060936232989
 20
-162.1073591338404
 30
0.0
 40
2.0
100
AcDbArc
 50
277.6571812775866
 51
0.0
  0
ARC
  5
15104
330
DCF2
100
AcDbEntity
  8
Ancontension
100
AcDbCircle
 10
2789.060936232989
 20
-161.5695815650463
 30
0.0
 40
2.0
100
AcDbArc
 50
180.0
 51
277.6571812775866
  0
LINE
  5
15107
330
DCF2
100
AcDbEntity
  8
Ancontension
100
AcDbLine
 10
2769.881004004763
 20
49.81953802098871
 30
0.0
 11
2711.167537950785
 21
108.5330040749669
 31
0.0
  0
LINE
  5
15108
330
DCF2
100
AcDbEntity
  8
Ancontension
100
AcDbLine
 10
2631.24086846121
 20
49.81953802098871
 30
0.0
 11
2689.954334515189
 21
108.5330040749669
 31
0.0
  0
ARC
  5
1510B
330
DCF2
100
AcDbEntity
  8
Ancontension
100
AcDbCircle
 10
2769.881004004763
 20
-40.1804619790107
 30
0.0
 40
90.0
100
AcDbArc
 50
82.34281872241325
 51
90.0
  0
LINE
  5
1510D
330
DCF2
100
AcDbEntity
  8
Ancontension
  6
HIDDEN1_02
100
AcDbLine
 10
2711.060936232989
 20
-16.18046197901127
 30
0.0
 11
2787.06093623299
 21
-16.18046197901127
 31
0.0
  0
LINE
  5
1510E
330
DCF2
100
AcDbEntity
  8
Ancontension
  6
HIDDEN1_02
100
AcDbLine
 10
2711.060936232989
 20
25.81953802098871
 30
0.0
 11
2787.06093623299
 21
25.81953802098871
 31
0.0
  0
ARC
  5
1510F
330
DCF2
100
AcDbEntity
  8
Ancontension
100
AcDbCircle
 10
2769.881004004766
 20
49.81953802098928
 30
0.0
 40
90.0
100
AcDbArc
 50
270.0
 51
277.6571812775866
  0
ARC
  5
15111
330
DCF2
100
AcDbEntity
  8
Ancontension
100
AcDbCircle
 10
2769.881004004763
 20
-165.3564646949195
 30
0.0
 40
90.0
100
AcDbArc
 50
82.34281872241325
 51
90.0
  0
LINE
  5
15112
330
DCF2
100
AcDbEntity
  8
Ancontension
  6
HIDDEN1_02
100
AcDbLine
 10
2711.060936232989
 20
-99.3564646949202
 30
0.0
 11
2787.06093623299
 21
-99.3564646949202
 31
0.0
  0
LINE
  5
15113
330
DCF2
100
AcDbEntity
  8
Ancontension
  6
HIDDEN1_02
100
AcDbLine
 10
2711.060936232989
 20
-141.3564646949201
 30
0.0
 11
2787.06093623299
 21
-141.3564646949201
 31
0.0
  0
LINE
  5
15117
330
DCF2
100
AcDbEntity
  8
Ancontension
100
AcDbLine
 10
2531.794445115212
 20
-87.91673309155568
 30
0.0
 11
2611.794445115211
 21
-77.16118171567268
 31
0.0
  0
LINE
  5
15118
330
DCF2
100
AcDbEntity
  8
Ancontension
  6
HIDDEN1_02
100
AcDbLine
 10
2614.06093623299
 20
-99.35646469491985
 30
0.0
 11
2572.060936232988
 21
-99.35646469491985
 31
0.0
  0
LINE
  5
15119
330
DCF2
100
AcDbEntity
  8
Ancontension
  6
HIDDEN1_02
100
AcDbLine
 10
2614.06093623299
 20
-141.3564646949198
 30
0.0
 11
2572.060936232988
 21
-141.3564646949198
 31
0.0
  0
LINE
  5
1511A
330
DCF2
100
AcDbEntity
  8
Ancontension
100
AcDbLine
 10
2530.060936232988
 20
-150.8140301891635
 30
0.0
 11
2530.060936232988
 21
-89.89889920067595
 31
0.0
  0
LINE
  5
1511B
330
DCF2
100
AcDbEntity
  8
Ancontension
  6
HIDDEN1_02
100
AcDbLine
 10
2572.060936232988
 20
-98.85646469491986
 30
0.0
 11
2572.060936232988
 21
-141.8564646949198
 31
0.0
  0
LINE
  5
1511C
330
DCF2
100
AcDbEntity
  8
Ancontension
  6
HIDDEN1_02
100
AcDbLine
 10
2572.060936232988
 20
-141.8564646949198
 30
0.0
 11
2530.383217764918
 21
-141.8564646949198
 31
0.0
  0
LINE
  5
1511D
330
DCF2
100
AcDbEntity
  8
Ancontension
  6
HIDDEN1_02
100
AcDbLine
 10
2572.060936232988
 20
-98.85646469491986
 30
0.0
 11
2530.383217764918
 21
-98.85646469491986
 31
0.0
  0
ARC
  5
1511E
330
DCF2
100
AcDbEntity
  8
Ancontension
100
AcDbCircle
 10
2532.060936232989
 20
-89.89889920067595
 30
0.0
 40
2.0
100
AcDbArc
 50
97.65718127758674
 51
180.0
  0
ELLIPSE
  5
1511F
330
DCF2
100
AcDbEntity
  8
Ancontension
100
AcDbEllipse
 10
2591.277868265147
 20
-148.9497022019843
 30
0.0
 11
3.25
 21
0.0
 31
0.0
210
0.0
220
0.0
230
1.0
 40
0.7071067811865445
 41
0.0
 42
6.283185307179585
  0
ELLIPSE
  5
15120
330
DCF2
100
AcDbEntity
  8
Ancontension
100
AcDbEllipse
 10
2591.277868265147
 20
-91.76322718785495
 30
0.0
 11
3.25
 21
0.0
 31
0.0
210
0.0
220
0.0
230
-1.0
 40
0.7071067811865445
 41
0.0
 42
6.283185307179585
  0
ARC
  5
15121
330
DCF2
100
AcDbEntity
  8
Ancontension
100
AcDbCircle
 10
2612.060936232988
 20
-79.14334782479318
 30
0.0
 40
2.0
100
AcDbArc
 50
0.0
 51
97.65718127758674
  0
LINE
  5
15122
330
DCF2
100
AcDbEntity
  8
Ancontension
100
AcDbLine
 10
2631.24086846121
 20
-125.3564646949197
 30
0.0
 11
2769.881004004763
 21
-125.3564646949197
 31
0.0
  0
LINE
  5
15123
330
DCF2
100
AcDbEntity
  8
Ancontension
100
AcDbLine
 10
2631.24086846121
 20
-115.3564646949198
 30
0.0
 11
2769.881004004763
 21
-115.3564646949196
 31
0.0
  0
LINE
  5
15124
330
DCF2
100
AcDbEntity
  8
Ancontension
  6
HIDDEN1_02
100
AcDbLine
 10
2690.06093623299
 20
-101.6064646949197
 30
0.0
 11
2711.060936232989
 21
-101.6064646949195
 31
0.0
  0
LINE
  5
15125
330
DCF2
100
AcDbEntity
  8
Ancontension
  6
HIDDEN1_02
100
AcDbLine
 10
2690.06093623299
 20
-139.1064646949199
 30
0.0
 11
2711.060936232989
 21
-139.1064646949197
 31
0.0
  0
LINE
  5
15126
330
DCF2
100
AcDbEntity
  8
Ancontension
100
AcDbLine
 10
2631.24086846121
 20
-115.3564646949198
 30
0.0
 11
2631.24086846121
 21
-125.3564646949197
 31
0.0
  0
LINE
  5
15127
330
DCF2
100
AcDbEntity
  8
Ancontension
  6
HIDDEN1_02
100
AcDbLine
 10
2614.06093623299
 20
-141.3564646949201
 30
0.0
 11
2690.06093623299
 21
-141.3564646949201
 31
0.0
  0
LINE
  5
15128
330
DCF2
100
AcDbEntity
  8
Ancontension
  6
HIDDEN1_02
100
AcDbLine
 10
2690.06093623299
 20
-141.3564646949201
 30
0.0
 11
2690.06093623299
 21
-139.1064646949198
 31
0.0
  0
LINE
  5
15129
330
DCF2
100
AcDbEntity
  8
Ancontension
  6
HIDDEN1_02
100
AcDbLine
 10
2614.06093623299
 20
-99.35646469492008
 30
0.0
 11
2690.06093623299
 21
-99.3564646949202
 31
0.0
  0
LINE
  5
1512A
330
DCF2
100
AcDbEntity
  8
Ancontension
  6
HIDDEN1_02
100
AcDbLine
 10
2690.06093623299
 20
-101.6064646949197
 30
0.0
 11
2690.06093623299
 21
-99.3564646949202
 31
0.0
  0
LINE
  5
1512B
330
DCF2
100
AcDbEntity
  8
Ancontension
  6
HIDDEN1_02
100
AcDbLine
 10
2705.310936232987
 20
-115.3564646949196
 30
0.0
 11
2705.310936232987
 21
-125.3564646949197
 31
0.0
  0
LINE
  5
1512C
330
DCF2
100
AcDbEntity
  8
Ancontension
  6
HIDDEN1_02
100
AcDbLine
 10
2695.810936232987
 20
-115.3564646949196
 30
0.0
 11
2695.810936232987
 21
-125.3564646949197
 31
0.0
  0
LINE
  5
1512D
330
DCF2
100
AcDbEntity
  8
Ancontension
100
AcDbLine
 10
2769.881004004763
 20
-115.3564646949196
 30
0.0
 11
2769.881004004763
 21
-125.3564646949197
 31
0.0
  0
LINE
  5
1512E
330
DCF2
100
AcDbEntity
  8
Ancontension
  6
HIDDEN1_02
100
AcDbLine
 10
2711.060936232989
 20
-141.3564646949201
 30
0.0
 11
2711.060936232989
 21
-139.1064646949198
 31
0.0
  0
LINE
  5
1512F
330
DCF2
100
AcDbEntity
  8
Ancontension
  6
HIDDEN1_02
100
AcDbLine
 10
2711.060936232989
 20
-101.6064646949197
 30
0.0
 11
2711.060936232989
 21
-99.35646469492008
 31
0.0
  0
LINE
  5
15130
330
DCF2
100
AcDbEntity
  8
Ancontension
100
AcDbLine
 10
2631.24086846121
 20
-75.35646469492019
 30
0.0
 11
2769.881004004763
 21
-75.35646469491962
 31
0.0
  0
LINE
  5
15131
330
DCF2
100
AcDbEntity
  8
Ancontension
100
AcDbLine
 10
2615.794445115212
 20
-76.62340414687843
 30
0.0
 11
2619.248768161234
 21
-76.15898978449854
 31
0.0
  0
ARC
  5
15132
330
DCF2
100
AcDbEntity
  8
Ancontension
100
AcDbCircle
 10
2616.060936232988
 20
-78.60557025599894
 30
0.0
 40
2.0
100
AcDbArc
 50
97.65718127758674
 51
180.0
  0
ARC
  5
15133
330
DCF2
100
AcDbEntity
  8
Ancontension
100
AcDbCircle
 10
2631.24086846121
 20
-165.3564646949202
 30
0.0
 40
90.0
100
AcDbArc
 50
90.0
 51
97.65718127758674
  0
LINE
  5
15136
330
DCF2
100
AcDbEntity
  8
Ancontension
  6
HIDDEN1_02
100
AcDbLine
 10
2572.060936232988
 20
26.31953802098905
 30
0.0
 11
2572.060936232988
 21
-16.68046197901094
 31
0.0
  0
LINE
  5
15137
330
DCF2
100
AcDbEntity
  8
Ancontension
100
AcDbLine
 10
2530.060936232988
 20
-25.63802747325462
 30
0.0
 11
2530.060936232988
 21
35.27710351523296
 31
0.0
  0
LINE
  5
15138
330
DCF2
100
AcDbEntity
  8
Ancontension
100
AcDbLine
 10
2614.06093623299
 20
-36.39357884913738
 30
0.0
 11
2614.06093623299
 21
46.03265489111572
 31
0.0
  0
LINE
  5
15139
330
DCF2
100
AcDbEntity
  8
Ancontension
  6
HIDDEN1_02
100
AcDbLine
 10
2614.06093623299
 20
-16.18046197901094
 30
0.0
 11
2572.060936232988
 21
-16.18046197901094
 31
0.0
  0
LINE
  5
1513A
330
DCF2
100
AcDbEntity
  8
Ancontension
100
AcDbLine
 10
2531.794445115212
 20
-27.62019358237512
 30
0.0
 11
2611.794445115211
 21
-38.37574495825788
 31
0.0
  0
ARC
  5
1513B
330
DCF2
100
AcDbEntity
  8
Ancontension
100
AcDbCircle
 10
2532.060936232989
 20
-25.63802747325462
 30
0.0
 40
2.0
100
AcDbArc
 50
180.0
 51
262.3428187224131
  0
LINE
  5
1513C
330
DCF2
100
AcDbEntity
  8
Ancontension
  6
HIDDEN1_02
100
AcDbLine
 10
2572.060936232988
 20
-16.68046197901094
 30
0.0
 11
2530.383217764918
 21
-16.68046197901094
 31
0.0
  0
ELLIPSE
  5
1513D
330
DCF2
100
AcDbEntity
  8
Ancontension
100
AcDbEllipse
 10
2591.277868265147
 20
-23.77369948607548
 30
0.0
 11
3.25
 21
0.0
 31
0.0
210
0.0
220
0.0
230
1.0
 40
0.7071067811865445
 41
0.0
 42
6.283185307179585
  0
ARC
  5
1513E
330
DCF2
100
AcDbEntity
  8
Ancontension
100
AcDbCircle
 10
2612.060936232988
 20
-36.39357884913738
 30
0.0
 40
2.0
100
AcDbArc
 50
262.3428187224131
 51
0.0
  0
LINE
  5
1513F
330
DCF2
100
AcDbEntity
  8
Ancontension
100
AcDbLine
 10
2531.794445115212
 20
37.25926962435323
 30
0.0
 11
2611.794445115211
 21
48.01482100023623
 31
0.0
  0
LINE
  5
15140
330
DCF2
100
AcDbEntity
  8
Ancontension
  6
HIDDEN1_02
100
AcDbLine
 10
2614.06093623299
 20
25.81953802098905
 30
0.0
 11
2572.060936232988
 21
25.81953802098905
 31
0.0
  0
LINE
  5
15141
330
DCF2
100
AcDbEntity
  8
Ancontension
  6
HIDDEN1_02
100
AcDbLine
 10
2572.060936232988
 20
26.31953802098905
 30
0.0
 11
2530.383217764918
 21
26.31953802098905
 31
0.0
  0
ARC
  5
15142
330
DCF2
100
AcDbEntity
  8
Ancontension
100
AcDbCircle
 10
2532.060936232989
 20
35.27710351523296
 30
0.0
 40
2.0
100
AcDbArc
 50
97.65718127758674
 51
180.0
  0
ARC
  5
15143
330
DCF2
100
AcDbEntity
  8
Ancontension
100
AcDbCircle
 10
2612.060936232988
 20
46.03265489111572
 30
0.0
 40
2.0
100
AcDbArc
 50
0.0
 51
97.65718127758674
  0
ELLIPSE
  5
15144
330
DCF2
100
AcDbEntity
  8
Ancontension
100
AcDbEllipse
 10
2591.277868265147
 20
33.41277552805394
 30
0.0
 11
3.25
 21
0.0
 31
0.0
210
0.0
220
0.0
230
-1.0
 40
0.7071067811865445
 41
0.0
 42
6.283185307179585
  0
LINE
  5
15146
330
DCF2
100
AcDbEntity
  8
Ancontension
100
AcDbLine
 10
2614.06093623299
 20
-36.93135641793162
 30
0.0
 11
2614.060936232988
 21
46.57043245990997
 31
0.0
  0
LINE
  5
15147
330
DCF2
100
AcDbEntity
  8
Ancontension
  6
HIDDEN1_02
100
AcDbLine
 10
2690.06093623299
 20
-13.93046197901105
 30
0.0
 11
2711.060936232989
 21
-13.93046197901083
 31
0.0
  0
LINE
  5
15148
330
DCF2
100
AcDbEntity
  8
Ancontension
100
AcDbLine
 10
2631.240868461218
 20
-40.18046197901139
 30
0.0
 11
2769.881004004766
 21
-40.1804619790107
 31
0.0
  0
LINE
  5
15149
330
DCF2
100
AcDbEntity
  8
Ancontension
100
AcDbLine
 10
2615.794445115212
 20
-38.91352252705211
 30
0.0
 11
2619.248768161243
 21
-39.37793688943327
 31
0.0
  0
ARC
  5
1514A
330
DCF2
100
AcDbEntity
  8
Ancontension
100
AcDbCircle
 10
2631.240868461218
 20
49.8195380209886
 30
0.0
 40
90.0
100
AcDbArc
 50
262.3428187224131
 51
270.0
  0
ARC
  5
1514B
330
DCF2
100
AcDbEntity
  8
Ancontension
100
AcDbCircle
 10
2616.060936232988
 20
-36.93135641793162
 30
0.0
 40
2.0
100
AcDbArc
 50
180.0
 51
262.3428187224131
  0
LINE
  5
1514C
330
DCF2
100
AcDbEntity
  8
Ancontension
  6
HIDDEN1_02
100
AcDbLine
 10
2614.06093623299
 20
-16.18046197901127
 30
0.0
 11
2690.06093623299
 21
-16.18046197901127
 31
0.0
  0
LINE
  5
1514D
330
DCF2
100
AcDbEntity
  8
Ancontension
  6
HIDDEN1_02
100
AcDbLine
 10
2690.06093623299
 20
-16.18046197901127
 30
0.0
 11
2690.06093623299
 21
-13.93046197901093
 31
0.0
  0
LINE
  5
1514E
330
DCF2
100
AcDbEntity
  8
Ancontension
  6
HIDDEN1_02
100
AcDbLine
 10
2711.060936232989
 20
-16.18046197901127
 30
0.0
 11
2711.060936232989
 21
-13.93046197901093
 31
0.0
  0
LINE
  5
1514F
330
DCF2
100
AcDbEntity
  8
Ancontension
100
AcDbLine
 10
2631.24086846121
 20
49.81953802098871
 30
0.0
 11
2769.881004004763
 21
49.81953802098928
 31
0.0
  0
LINE
  5
15150
330
DCF2
100
AcDbEntity
  8
Ancontension
  6
HIDDEN1_02
100
AcDbLine
 10
2690.06093623299
 20
23.56953802098904
 30
0.0
 11
2711.060936232989
 21
23.56953802098928
 31
0.0
  0
ARC
  5
15151
330
DCF2
100
AcDbEntity
  8
Ancontension
100
AcDbCircle
 10
2616.060936232988
 20
46.57043245990997
 30
0.0
 40
2.0
100
AcDbArc
 50
97.65718127758674
 51
180.0
  0
LINE
  5
15152
330
DCF2
100
AcDbEntity
  8
Ancontension
  6
HIDDEN1_02
100
AcDbLine
 10
2614.06093623299
 20
25.81953802098882
 30
0.0
 11
2690.06093623299
 21
25.81953802098871
 31
0.0
  0
LINE
  5
15153
330
DCF2
100
AcDbEntity
  8
Ancontension
  6
HIDDEN1_02
100
AcDbLine
 10
2690.06093623299
 20
23.56953802098904
 30
0.0
 11
2690.06093623299
 21
25.81953802098871
 31
0.0
  0
LINE
  5
15154
330
DCF2
100
AcDbEntity
  8
Ancontension
100
AcDbLine
 10
2615.794445115212
 20
48.55259856903046
 30
0.0
 11
2619.248768161234
 21
49.01701293141036
 31
0.0
  0
ARC
  5
15155
330
DCF2
100
AcDbEntity
  8
Ancontension
100
AcDbCircle
 10
2631.24086846121
 20
-40.18046197901128
 30
0.0
 40
90.0
100
AcDbArc
 50
90.0
 51
97.65718127758674
  0
LINE
  5
15156
330
DCF2
100
AcDbEntity
  8
Ancontension
  6
HIDDEN1_02
100
AcDbLine
 10
2711.060936232989
 20
23.56953802098904
 30
0.0
 11
2711.060936232989
 21
25.81953802098882
 31
0.0
  0
LINE
  5
15157
330
DCF2
100
AcDbEntity
  8
Ancontension
100
AcDbLine
 10
2869.327427350766
 20
-87.91673309155568
 30
0.0
 11
2789.327427350766
 21
-77.16118171567268
 31
0.0
  0
ELLIPSE
  5
15158
330
DCF2
100
AcDbEntity
  8
Ancontension
100
AcDbEllipse
 10
2809.844004200831
 20
-148.9497022019843
 30
0.0
 11
-3.25
 21
0.0
 31
0.0
210
0.0
220
0.0
230
-1.0
 40
0.7071067811865445
 41
0.0
 42
6.283185307179585
  0
ELLIPSE
  5
15159
330
DCF2
100
AcDbEntity
  8
Ancontension
100
AcDbEllipse
 10
2809.844004200831
 20
-91.76322718785495
 30
0.0
 11
-3.25
 21
0.0
 31
0.0
210
0.0
220
0.0
230
1.0
 40
0.7071067811865445
 41
0.0
 42
6.283185307179585
  0
LINE
  5
1515A
330
DCF2
100
AcDbEntity
  8
Ancontension
  6
HIDDEN1_02
100
AcDbLine
 10
2787.06093623299
 20
-99.35646469491985
 30
0.0
 11
2829.060936232989
 21
-99.35646469491985
 31
0.0
  0
LINE
  5
1515B
330
DCF2
100
AcDbEntity
  8
Ancontension
  6
HIDDEN1_02
100
AcDbLine
 10
2787.06093623299
 20
-141.3564646949198
 30
0.0
 11
2829.060936232989
 21
-141.3564646949198
 31
0.0
  0
LINE
  5
1515D
330
DCF2
100
AcDbEntity
  8
Ancontension
100
AcDbLine
 10
2871.060936232988
 20
-150.8140301891635
 30
0.0
 11
2871.060936232988
 21
-89.89889920067595
 31
0.0
  0
LINE
  5
1515E
330
DCF2
100
AcDbEntity
  8
Ancontension
  6
HIDDEN1_02
100
AcDbLine
 10
2829.060936232989
 20
-98.85646469491986
 30
0.0
 11
2829.060936232989
 21
-141.8564646949198
 31
0.0
  0
LINE
  5
1515F
330
DCF2
100
AcDbEntity
  8
Ancontension
  6
HIDDEN1_02
100
AcDbLine
 10
2829.060936232989
 20
-141.8564646949198
 30
0.0
 11
2870.73865470106
 21
-141.8564646949198
 31
0.0
  0
LINE
  5
15160
330
DCF2
100
AcDbEntity
  8
Ancontension
  6
HIDDEN1_02
100
AcDbLine
 10
2829.060936232989
 20
-98.85646469491986
 30
0.0
 11
2870.73865470106
 21
-98.85646469491986
 31
0.0
  0
ARC
  5
15161
330
DCF2
100
AcDbEntity
  8
Ancontension
100
AcDbCircle
 10
2869.060936232989
 20
-89.89889920067595
 30
0.0
 40
2.0
100
AcDbArc
 50
0.0
 51
82.34281872241325
  0
LINE
  5
15162
330
DCF2
100
AcDbEntity
  8
Ancontension
100
AcDbLine
 10
2785.327427350765
 20
-76.62340414687854
 30
0.0
 11
2781.873104304738
 21
-76.15898978449762
 31
0.0
  0
ARC
  5
15163
330
DCF2
100
AcDbEntity
  8
Ancontension
100
AcDbCircle
 10
2785.060936232989
 20
-78.60557025599906
 30
0.0
 40
2.0
100
AcDbArc
 50
0.0
 51
82.34281872241325
  0
ARC
  5
15164
330
DCF2
100
AcDbEntity
  8
Ancontension
100
AcDbCircle
 10
2789.060936232989
 20
-79.14334782479318
 30
0.0
 40
2.0
100
AcDbArc
 50
82.34281872241325
 51
180.0
  0
LINE
  5
15165
330
DCF2
100
AcDbEntity
  8
Ancontension
  6
HIDDEN1_02
100
AcDbLine
 10
2829.060936232989
 20
26.31953802098905
 30
0.0
 11
2829.060936232989
 21
-16.68046197901094
 31
0.0
  0
LINE
  5
15167
330
DCF2
100
AcDbEntity
  8
Ancontension
100
AcDbLine
 10
2787.06093623299
 20
-36.93135641793151
 30
0.0
 11
2787.060936232988
 21
46.57043245990985
 31
0.0
  0
LINE
  5
15169
330
DCF2
100
AcDbEntity
  8
Ancontension
100
AcDbLine
 10
2787.06093623299
 20
-36.39357884913738
 30
0.0
 11
2787.06093623299
 21
46.03265489111572
 31
0.0
  0
LINE
  5
1516A
330
DCF2
100
AcDbEntity
  8
Ancontension
100
AcDbLine
 10
2871.060936232988
 20
-25.63802747325462
 30
0.0
 11
2871.060936232988
 21
35.27710351523296
 31
0.0
  0
ELLIPSE
  5
1516B
330
DCF2
100
AcDbEntity
  8
Ancontension
100
AcDbEllipse
 10
2809.844004200831
 20
-23.77369948607548
 30
0.0
 11
-3.25
 21
0.0
 31
0.0
210
0.0
220
0.0
230
-1.0
 40
0.7071067811865445
 41
0.0
 42
6.283185307179585
  0
LINE
  5
1516C
330
DCF2
100
AcDbEntity
  8
Ancontension
  6
HIDDEN1_02
100
AcDbLine
 10
2787.06093623299
 20
-16.18046197901094
 30
0.0
 11
2829.060936232989
 21
-16.18046197901094
 31
0.0
  0
LINE
  5
1516D
330
DCF2
100
AcDbEntity
  8
Ancontension
100
AcDbLine
 10
2869.327427350766
 20
-27.62019358237512
 30
0.0
 11
2789.327427350766
 21
-38.37574495825788
 31
0.0
  0
LINE
  5
1516E
330
DCF2
100
AcDbEntity
  8
Ancontension
100
AcDbLine
 10
2785.327427350765
 20
-38.91352252705201
 30
0.0
 11
2781.873104304742
 21
-39.37793688943246
 31
0.0
  0
ARC
  5
1516F
330
DCF2
100
AcDbEntity
  8
Ancontension
100
AcDbCircle
 10
2785.060936232989
 20
-36.93135641793151
 30
0.0
 40
2.0
100
AcDbArc
 50
277.6571812775866
 51
0.0
  0
ARC
  5
15170
330
DCF2
100
AcDbEntity
  8
Ancontension
100
AcDbCircle
 10
2789.060936232989
 20
-36.39357884913738
 30
0.0
 40
2.0
100
AcDbArc
 50
180.0
 51
277.6571812775866
  0
ARC
  5
15171
330
DCF2
100
AcDbEntity
  8
Ancontension
100
AcDbCircle
 10
2869.060936232989
 20
-25.63802747325462
 30
0.0
 40
2.0
100
AcDbArc
 50
277.6571812775866
 51
0.0
  0
LINE
  5
15172
330
DCF2
100
AcDbEntity
  8
Ancontension
  6
HIDDEN1_02
100
AcDbLine
 10
2829.060936232989
 20
-16.68046197901094
 30
0.0
 11
2870.73865470106
 21
-16.68046197901094
 31
0.0
  0
ELLIPSE
  5
15173
330
DCF2
100
AcDbEntity
  8
Ancontension
100
AcDbEllipse
 10
2809.844004200831
 20
33.41277552805394
 30
0.0
 11
-3.25
 21
0.0
 31
0.0
210
0.0
220
0.0
230
1.0
 40
0.7071067811865445
 41
0.0
 42
6.283185307179585
  0
LINE
  5
15174
330
DCF2
100
AcDbEntity
  8
Ancontension
100
AcDbLine
 10
2869.327427350766
 20
37.25926962435323
 30
0.0
 11
2789.327427350766
 21
48.01482100023623
 31
0.0
  0
LINE
  5
15175
330
DCF2
100
AcDbEntity
  8
Ancontension
  6
HIDDEN1_02
100
AcDbLine
 10
2787.06093623299
 20
25.81953802098905
 30
0.0
 11
2829.060936232989
 21
25.81953802098905
 31
0.0
  0
ARC
  5
15176
330
DCF2
100
AcDbEntity
  8
Ancontension
100
AcDbCircle
 10
2789.060936232989
 20
46.03265489111572
 30
0.0
 40
2.0
100
AcDbArc
 50
82.34281872241325
 51
180.0
  0
ARC
  5
15177
330
DCF2
100
AcDbEntity
  8
Ancontension
100
AcDbCircle
 10
2785.060936232989
 20
46.57043245990985
 30
0.0
 40
2.0
100
AcDbArc
 50
0.0
 51
82.34281872241325
  0
LINE
  5
15178
330
DCF2
100
AcDbEntity
  8
Ancontension
100
AcDbLine
 10
2785.327427350765
 20
48.55259856903035
 30
0.0
 11
2781.873104304738
 21
49.01701293141127
 31
0.0
  0
LINE
  5
15179
330
DCF2
100
AcDbEntity
  8
Ancontension
  6
HIDDEN1_02
100
AcDbLine
 10
2829.060936232989
 20
26.31953802098905
 30
0.0
 11
2870.73865470106
 21
26.31953802098905
 31
0.0
  0
ARC
  5
1517A
330
DCF2
100
AcDbEntity
  8
Ancontension
100
AcDbCircle
 10
2869.060936232989
 20
35.27710351523296
 30
0.0
 40
2.0
100
AcDbArc
 50
0.0
 51
82.34281872241325
  0
ARC
  5
1517C
330
DCF2
100
AcDbEntity
  8
Ancontension
100
AcDbCircle
 10
2700.560936232987
 20
97.92640235716888
 30
0.0
 40
15.0
100
AcDbArc
 50
44.99999999999309
 51
135.0000000000069
  0
CIRCLE
  5
1517D
330
DCF2
100
AcDbEntity
  8
Ancontension
100
AcDbCircle
 10
2700.560936232987
 20
97.92640235716888
 30
0.0
 40
4.75
  0
TEXT
  5
1528F
330
DCF2
100
AcDbEntity
  8
Ancontension
100
AcDbText
 10
2686.003240533588
 20
-60.27722931494428
 30
0.0
 40
10.0
  1
42
  7
ROMANS
100
AcDbText
  0
LINE
  5
153BC
330
DCF2
100
AcDbEntity
  8
Ancontension
  6
HIDDEN1_02
100
AcDbLine
 10
2868.274825493532
 20
-309.9439675223627
 30
0.0
 11
2914.774825493532
 21
-309.9439675223627
 31
0.0
  0
LINE
  5
153BD
330
DCF2
100
AcDbEntity
  8
Ancontension
  6
HIDDEN1_02
100
AcDbLine
 10
2868.274825493532
 20
-358.9439675223625
 30
0.0
 11
2914.774825493532
 21
-358.9439675223625
 31
0.0
  0
LINE
  5
153BE
330
DCF2
100
AcDbEntity
  8
Ancontension
  6
HIDDEN1_02
100
AcDbLine
 10
2868.274825493532
 20
-455.7775024355416
 30
0.0
 11
2914.774825493532
 21
-455.7775024355416
 31
0.0
  0
LINE
  5
153BF
330
DCF2
100
AcDbEntity
  8
Ancontension
  6
HIDDEN1_02
100
AcDbLine
 10
2868.274825493532
 20
-504.7775024355416
 30
0.0
 11
2914.774825493532
 21
-504.7775024355416
 31
0.0
  0
LINE
  5
153C1
330
DCF2
100
AcDbEntity
  8
Ancontension
100
AcDbLine
 10
2913.039844534518
 20
-517.5764261712329
 30
0.0
 11
2824.039844534517
 21
-529.4746956170082
 31
0.0
  0
LINE
  5
153C2
330
DCF2
100
AcDbEntity
  8
Ancontension
100
AcDbLine
 10
2913.039844534519
 20
-442.9785786998504
 30
0.0
 11
2824.039844534517
 21
-431.080309254075
 31
0.0
  0
LINE
  5
153C3
330
DCF2
100
AcDbEntity
  8
Ancontension
100
AcDbLine
 10
2913.039844534518
 20
-371.7428912580538
 30
0.0
 11
2824.039844534517
 21
-383.6411607038293
 31
0.0
  0
LINE
  5
153C4
330
DCF2
100
AcDbEntity
  8
Ancontension
100
AcDbLine
 10
2913.039844534518
 20
-297.1450437866714
 30
0.0
 11
2824.039844534517
 21
-285.2467743408959
 31
0.0
  0
LINE
  5
153C5
330
DCF2
100
AcDbEntity
  8
Ancontension
  6
HIDDEN1_02
100
AcDbLine
 10
2868.274825493532
 20
-455.7775024355416
 30
0.0
 11
2868.274825493532
 21
-504.7775024355416
 31
0.0
  0
LINE
  5
153C6
330
DCF2
100
AcDbEntity
  8
Ancontension
100
AcDbLine
 10
2821.774825493532
 20
-527.49233215187
 30
0.0
 11
2821.774825493532
 21
-433.0626727192131
 31
0.0
  0
LINE
  5
153C7
330
DCF2
100
AcDbEntity
  8
Ancontension
100
AcDbLine
 10
2821.774825493532
 20
-528.0270858348256
 30
0.0
 11
2821.77482549353
 21
-432.5279190362564
 31
0.0
  0
LINE
  5
153C8
330
DCF2
100
AcDbEntity
  8
Ancontension
  6
HIDDEN1_02
100
AcDbLine
 10
2577.27482549353
 20
-455.7775024355412
 30
0.0
 11
2577.27482549353
 21
-504.7775024355411
 31
0.0
  0
LINE
  5
153C9
330
DCF2
100
AcDbEntity
  8
Ancontension
100
AcDbLine
 10
2623.77482549353
 20
-527.4923321518696
 30
0.0
 11
2623.774825493532
 21
-433.0626727192128
 31
0.0
  0
LINE
  5
153CA
330
DCF2
100
AcDbEntity
  8
Ancontension
100
AcDbLine
 10
2623.77482549353
 20
-528.0270858348256
 30
0.0
 11
2623.774825493532
 21
-432.5279190362564
 31
0.0
  0
LINE
  5
153CB
330
DCF2
100
AcDbEntity
  8
Ancontension
100
AcDbLine
 10
2530.77482549353
 20
-515.5940627060942
 30
0.0
 11
2530.77482549353
 21
-444.9609421649884
 31
0.0
  0
LINE
  5
153CC
330
DCF2
100
AcDbEntity
  8
Ancontension
  6
HIDDEN1_02
100
AcDbLine
 10
2623.77482549353
 20
-504.2775024355411
 30
0.0
 11
2577.27482549353
 21
-504.2775024355411
 31
0.0
  0
LINE
  5
153CD
330
DCF2
100
AcDbEntity
  8
Ancontension
100
AcDbLine
 10
2532.509806452546
 20
-517.5764261712323
 30
0.0
 11
2621.509806452546
 21
-529.4746956170079
 31
0.0
  0
LINE
  5
153CE
330
DCF2
100
AcDbEntity
  8
Ancontension
  6
HIDDEN1_02
100
AcDbLine
 10
2577.27482549353
 20
-504.7775024355411
 30
0.0
 11
2530.77482549353
 21
-504.7775024355411
 31
0.0
  0
ARC
  5
153CF
330
DCF2
100
AcDbEntity
  8
Ancontension
100
AcDbCircle
 10
2532.774825493531
 20
-515.5940627060942
 30
0.0
 40
2.0
100
AcDbArc
 50
180.0
 51
262.3853679237023
  0
LINE
  5
153D0
330
DCF2
100
AcDbEntity
  8
Ancontension
100
AcDbLine
 10
2645.589446811066
 20
-531.7775024355409
 30
0.0
 11
2799.960204175998
 21
-531.7775024355409
 31
0.0
  0
LINE
  5
153D1
330
DCF2
100
AcDbEntity
  8
Ancontension
  6
HIDDEN1_02
100
AcDbLine
 10
2710.774825493531
 20
-501.777502435541
 30
0.0
 11
2734.774825493532
 21
-501.7775024355408
 31
0.0
  0
ARC
  5
153D2
330
DCF2
100
AcDbEntity
  8
Ancontension
100
AcDbCircle
 10
2645.589446811066
 20
-428.7775024355408
 30
0.0
 40
103.0
100
AcDbArc
 50
262.3853679237023
 51
270.0
  0
LINE
  5
153D3
330
DCF2
100
AcDbEntity
  8
Ancontension
  6
HIDDEN1_02
100
AcDbLine
 10
2623.774825493532
 20
-504.2775024355408
 30
0.0
 11
2710.774825493531
 21
-504.2775024355408
 31
0.0
  0
ARC
  5
153D4
330
DCF2
100
AcDbEntity
  8
Ancontension
100
AcDbCircle
 10
2621.774825493531
 20
-527.4923321518696
 30
0.0
 40
2.0
100
AcDbArc
 50
262.3853679237023
 51
0.0
  0
LINE
  5
153D5
330
DCF2
100
AcDbEntity
  8
Ancontension
100
AcDbLine
 10
2625.509806452546
 20
-530.0094492999638
 30
0.0
 11
2631.940966200331
 21
-530.8692208901657
 31
0.0
  0
ARC
  5
153D6
330
DCF2
100
AcDbEntity
  8
Ancontension
100
AcDbCircle
 10
2625.774825493531
 20
-528.0270858348256
 30
0.0
 40
2.0
100
AcDbArc
 50
180.0
 51
262.3853679237023
  0
ELLIPSE
  5
153D7
330
DCF2
100
AcDbEntity
  8
Ancontension
100
AcDbEllipse
 10
2586.864468260472
 20
-511.7900786251062
 30
0.0
 11
3.25
 21
0.0
 31
0.0
210
0.0
220
0.0
230
1.0
 40
0.7071067811865445
 41
0.0
 42
6.283185307179585
  0
LINE
  5
153D8
330
DCF2
100
AcDbEntity
  8
Ancontension
  6
HIDDEN1_02
100
AcDbLine
 10
2710.774825493531
 20
-504.2775024355408
 30
0.0
 11
2710.774825493531
 21
-501.777502435541
 31
0.0
  0
LINE
  5
153D9
330
DCF2
100
AcDbEntity
  8
Ancontension
100
AcDbLine
 10
2820.039844534517
 20
-530.0094492999638
 30
0.0
 11
2813.608684786732
 21
-530.8692208901657
 31
0.0
  0
LINE
  5
153DA
330
DCF2
100
AcDbEntity
  8
Ancontension
  6
HIDDEN1_02
100
AcDbLine
 10
2734.774825493532
 20
-504.2775024355408
 30
0.0
 11
2821.774825493532
 21
-504.2775024355408
 31
0.0
  0
ARC
  5
153DB
330
DCF2
100
AcDbEntity
  8
Ancontension
100
AcDbCircle
 10
2799.960204175998
 20
-428.7775024355408
 30
0.0
 40
103.0
100
AcDbArc
 50
270.0
 51
277.6146320762975
  0
LINE
  5
153DC
330
DCF2
100
AcDbEntity
  8
Ancontension
  6
HIDDEN1_02
100
AcDbLine
 10
2734.774825493531
 20
-504.2775024355408
 30
0.0
 11
2734.774825493531
 21
-501.777502435541
 31
0.0
  0
ARC
  5
153DD
330
DCF2
100
AcDbEntity
  8
Ancontension
100
AcDbCircle
 10
2823.774825493532
 20
-527.49233215187
 30
0.0
 40
2.0
100
AcDbArc
 50
180.0
 51
277.6146320762975
  0
ARC
  5
153DE
330
DCF2
100
AcDbEntity
  8
Ancontension
100
AcDbCircle
 10
2819.774825493532
 20
-528.0270858348256
 30
0.0
 40
2.0
100
AcDbArc
 50
277.6146320762975
 51
0.0
  0
LINE
  5
153DF
330
DCF2
100
AcDbEntity
  8
Ancontension
  6
HIDDEN1_02
100
AcDbLine
 10
2821.774825493532
 20
-504.2775024355417
 30
0.0
 11
2868.274825493532
 21
-504.2775024355417
 31
0.0
  0
ELLIPSE
  5
153E0
330
DCF2
100
AcDbEntity
  8
Ancontension
100
AcDbEllipse
 10
2858.685182726592
 20
-511.7900786251066
 30
0.0
 11
-3.25
 21
0.0
 31
0.0
210
0.0
220
0.0
230
-1.0
 40
0.7071067811865445
 41
0.0
 42
6.283185307179585
  0
LINE
  5
153E4
330
DCF2
100
AcDbEntity
  8
Ancontension
100
AcDbLine
 10
2799.960204175994
 20
-282.9439675223621
 30
0.0
 11
2735.502747554889
 21
-218.4865109012576
 31
0.0
  0
LINE
  5
153E5
330
DCF2
100
AcDbEntity
  8
Ancontension
100
AcDbLine
 10
2645.58944681107
 20
-282.9439675223621
 30
0.0
 11
2710.046903432174
 21
-218.4865109012576
 31
0.0
  0
LINE
  5
153E6
330
DCF2
100
AcDbEntity
  8
Ancontension
  6
HIDDEN1_02
100
AcDbLine
 10
2623.774825493532
 20
-310.4439675223622
 30
0.0
 11
2577.274825493532
 21
-310.4439675223622
 31
0.0
  0
LINE
  5
153E7
330
DCF2
100
AcDbEntity
  8
Ancontension
  6
HIDDEN1_02
100
AcDbLine
 10
2623.774825493532
 20
-358.4439675223622
 30
0.0
 11
2577.274825493532
 21
-358.4439675223622
 31
0.0
  0
LINE
  5
153E8
330
DCF2
100
AcDbEntity
  8
Ancontension
  6
HIDDEN1_02
100
AcDbLine
 10
2623.77482549353
 20
-456.2775024355412
 30
0.0
 11
2577.27482549353
 21
-456.2775024355412
 31
0.0
  0
LINE
  5
153E9
330
DCF2
100
AcDbEntity
  8
Ancontension
100
AcDbLine
 10
2532.509806452547
 20
-371.7428912580535
 30
0.0
 11
2621.509806452547
 21
-383.6411607038289
 31
0.0
  0
LINE
  5
153EA
330
DCF2
100
AcDbEntity
  8
Ancontension
100
AcDbLine
 10
2532.509806452546
 20
-297.145043786671
 30
0.0
 11
2621.509806452547
 21
-285.2467743408956
 31
0.0
  0
LINE
  5
153EB
330
DCF2
100
AcDbEntity
  8
Ancontension
100
AcDbLine
 10
2532.509806452545
 20
-442.97857869985
 30
0.0
 11
2621.509806452547
 21
-431.0803092540744
 31
0.0
  0
LINE
  5
153EC
330
DCF2
100
AcDbEntity
  8
Ancontension
  6
HIDDEN1_02
100
AcDbLine
 10
2577.27482549353
 20
-455.7775024355412
 30
0.0
 11
2530.77482549353
 21
-455.7775024355412
 31
0.0
  0
ARC
  5
153ED
330
DCF2
100
AcDbEntity
  8
Ancontension
100
AcDbCircle
 10
2532.77482549353
 20
-444.9609421649884
 30
0.0
 40
2.0
100
AcDbArc
 50
97.61463207629757
 51
180.0
  0
LINE
  5
153EE
330
DCF2
100
AcDbEntity
  8
Ancontension
  6
HIDDEN1_02
100
AcDbLine
 10
2577.274825493532
 20
-309.9439675223623
 30
0.0
 11
2577.274825493532
 21
-358.9439675223623
 31
0.0
  0
LINE
  5
153EF
330
DCF2
100
AcDbEntity
  8
Ancontension
100
AcDbLine
 10
2530.774825493532
 20
-369.7605277929151
 30
0.0
 11
2530.77482549353
 21
-299.1274072518093
 31
0.0
  0
LINE
  5
153F0
330
DCF2
100
AcDbEntity
  8
Ancontension
  6
HIDDEN1_02
100
AcDbLine
 10
2577.274825493532
 20
-358.9439675223623
 30
0.0
 11
2530.774825493532
 21
-358.9439675223623
 31
0.0
  0
ARC
  5
153F1
330
DCF2
100
AcDbEntity
  8
Ancontension
100
AcDbCircle
 10
2532.774825493532
 20
-369.7605277929151
 30
0.0
 40
2.0
100
AcDbArc
 50
180.0
 51
262.3853679237023
  0
LINE
  5
153F2
330
DCF2
100
AcDbEntity
  8
Ancontension
  6
HIDDEN1_02
100
AcDbLine
 10
2577.274825493532
 20
-309.9439675223623
 30
0.0
 11
2530.774825493532
 21
-309.9439675223623
 31
0.0
  0
ARC
  5
153F3
330
DCF2
100
AcDbEntity
  8
Ancontension
100
AcDbCircle
 10
2532.774825493531
 20
-299.1274072518093
 30
0.0
 40
2.0
100
AcDbArc
 50
97.61463207629757
 51
180.0
  0
ARC
  5
153F4
330
DCF2
100
AcDbEntity
  8
Ancontension
100
AcDbCircle
 10
2823.774825493532
 20
-381.6587972386912
 30
0.0
 40
2.0
100
AcDbArc
 50
180.0
 51
277.6146320762975
  0
ARC
  5
153F5
330
DCF2
100
AcDbEntity
  8
Ancontension
100
AcDbCircle
 10
2819.774825493532
 20
-382.1935509216468
 30
0.0
 40
2.0
100
AcDbArc
 50
277.6146320762975
 51
0.0
  0
ARC
  5
153F6
330
DCF2
100
AcDbEntity
  8
Ancontension
100
AcDbCircle
 10
2625.774825493531
 20
-382.1935509216468
 30
0.0
 40
2.0
100
AcDbArc
 50
180.0
 51
262.3853679237023
  0
ARC
  5
153F7
330
DCF2
100
AcDbEntity
  8
Ancontension
100
AcDbCircle
 10
2621.774825493532
 20
-381.6587972386908
 30
0.0
 40
2.0
100
AcDbArc
 50
262.3853679237023
 51
0.0
  0
LINE
  5
153FA
330
DCF2
100
AcDbEntity
  8
Ancontension
100
AcDbLine
 10
2645.589446811072
 20
-486.2775024355406
 30
0.0
 11
2799.960204175997
 21
-486.2775024355395
 31
0.0
  0
LINE
  5
153FB
330
DCF2
100
AcDbEntity
  8
Ancontension
100
AcDbLine
 10
2645.589446811072
 20
-474.2775024355408
 30
0.0
 11
2799.960204175997
 21
-474.2775024355394
 31
0.0
  0
LINE
  5
153FC
330
DCF2
100
AcDbEntity
  8
Ancontension
100
AcDbLine
 10
2645.589446811066
 20
-385.9439675223621
 30
0.0
 11
2799.960204175998
 21
-385.9439675223621
 31
0.0
  0
LINE
  5
153FF
330
DCF2
100
AcDbEntity
  8
Ancontension
100
AcDbLine
 10
2645.58944681107
 20
-428.7775024355408
 30
0.0
 11
2799.960204175994
 21
-428.7775024355408
 31
0.0
  0
LINE
  5
15400
330
DCF2
100
AcDbEntity
  8
Ancontension
  6
HIDDEN1_02
100
AcDbLine
 10
2710.774825493531
 20
-458.7775024355408
 30
0.0
 11
2734.774825493532
 21
-458.7775024355408
 31
0.0
  0
ARC
  5
15401
330
DCF2
100
AcDbEntity
  8
Ancontension
100
AcDbCircle
 10
2645.58944681107
 20
-531.7775024355409
 30
0.0
 40
103.0
100
AcDbArc
 50
90.0
 51
97.61463207629757
  0
LINE
  5
15402
330
DCF2
100
AcDbEntity
  8
Ancontension
  6
HIDDEN1_02
100
AcDbLine
 10
2623.774825493532
 20
-456.277502435541
 30
0.0
 11
2710.774825493531
 21
-456.277502435541
 31
0.0
  0
ELLIPSE
  5
15403
330
DCF2
100
AcDbEntity
  8
Ancontension
100
AcDbEllipse
 10
2586.864468260472
 20
-448.7649262459763
 30
0.0
 11
3.25
 21
0.0
 31
0.0
210
0.0
220
0.0
230
-1.0
 40
0.7071067811865445
 41
0.0
 42
6.283185307179585
  0
ARC
  5
15404
330
DCF2
100
AcDbEntity
  8
Ancontension
100
AcDbCircle
 10
2621.774825493532
 20
-433.0626727192128
 30
0.0
 40
2.0
100
AcDbArc
 50
0.0
 51
97.61463207629757
  0
ARC
  5
15405
330
DCF2
100
AcDbEntity
  8
Ancontension
100
AcDbCircle
 10
2625.774825493532
 20
-432.5279190362564
 30
0.0
 40
2.0
100
AcDbArc
 50
97.61463207629757
 51
180.0
  0
LINE
  5
15406
330
DCF2
100
AcDbEntity
  8
Ancontension
100
AcDbLine
 10
2625.509806452547
 20
-430.5455555711181
 30
0.0
 11
2631.940966200335
 21
-429.6857839809161
 31
0.0
  0
LINE
  5
15407
330
DCF2
100
AcDbEntity
  8
Ancontension
100
AcDbLine
 10
2645.589446811072
 20
-474.2775024355408
 30
0.0
 11
2645.589446811072
 21
-486.2775024355406
 31
0.0
  0
LINE
  5
15408
330
DCF2
100
AcDbEntity
  8
Ancontension
  6
HIDDEN1_02
100
AcDbLine
 10
2717.024825493534
 20
-474.2775024355402
 30
0.0
 11
2717.024825493535
 21
-486.2775024355401
 31
0.0
  0
LINE
  5
15409
330
DCF2
100
AcDbEntity
  8
Ancontension
  6
HIDDEN1_02
100
AcDbLine
 10
2710.774825493531
 20
-458.7775024355408
 30
0.0
 11
2710.774825493531
 21
-456.277502435541
 31
0.0
  0
ARC
  5
1540A
330
DCF2
100
AcDbEntity
  8
Ancontension
100
AcDbCircle
 10
2645.589446811066
 20
-282.9439675223621
 30
0.0
 40
103.0
100
AcDbArc
 50
262.3853679237023
 51
270.0
  0
LINE
  5
1540C
330
DCF2
100
AcDbEntity
  8
Ancontension
100
AcDbLine
 10
2625.509806452546
 20
-384.1759143867852
 30
0.0
 11
2631.940966200331
 21
-385.035685976987
 31
0.0
  0
LINE
  5
1540D
330
DCF2
100
AcDbEntity
  8
Ancontension
100
AcDbLine
 10
2820.039844534516
 20
-430.545555571118
 30
0.0
 11
2813.608684786728
 21
-429.6857839809161
 31
0.0
  0
LINE
  5
1540E
330
DCF2
100
AcDbEntity
  8
Ancontension
  6
HIDDEN1_02
100
AcDbLine
 10
2734.774825493532
 20
-456.277502435541
 30
0.0
 11
2821.774825493532
 21
-456.277502435541
 31
0.0
  0
LINE
  5
1540F
330
DCF2
100
AcDbEntity
  8
Ancontension
  6
HIDDEN1_02
100
AcDbLine
 10
2728.524825493535
 20
-474.27750243554
 30
0.0
 11
2728.524825493535
 21
-486.2775024355401
 31
0.0
  0
LINE
  5
15410
330
DCF2
100
AcDbEntity
  8
Ancontension
  6
HIDDEN1_02
100
AcDbLine
 10
2734.774825493531
 20
-458.7775024355408
 30
0.0
 11
2734.774825493532
 21
-456.277502435541
 31
0.0
  0
LINE
  5
15411
330
DCF2
100
AcDbEntity
  8
Ancontension
100
AcDbLine
 10
2799.960204175997
 20
-474.2775024355393
 30
0.0
 11
2799.960204175997
 21
-486.2775024355394
 31
0.0
  0
ARC
  5
15412
330
DCF2
100
AcDbEntity
  8
Ancontension
100
AcDbCircle
 10
2799.960204175994
 20
-531.7775024355409
 30
0.0
 40
103.0
100
AcDbArc
 50
82.38536792370245
 51
90.0
  0
LINE
  5
15413
330
DCF2
100
AcDbEntity
  8
Ancontension
  6
HIDDEN1_02
100
AcDbLine
 10
2821.774825493532
 20
-456.2775024355416
 30
0.0
 11
2868.274825493532
 21
-456.2775024355416
 31
0.0
  0
ARC
  5
15415
330
DCF2
100
AcDbEntity
  8
Ancontension
100
AcDbCircle
 10
2823.774825493532
 20
-433.0626727192131
 30
0.0
 40
2.0
100
AcDbArc
 50
82.38536792370245
 51
180.0
  0
ARC
  5
15416
330
DCF2
100
AcDbEntity
  8
Ancontension
100
AcDbCircle
 10
2819.774825493531
 20
-432.5279190362564
 30
0.0
 40
2.0
100
AcDbArc
 50
0.0
 51
82.38536792370245
  0
ELLIPSE
  5
15417
330
DCF2
100
AcDbEntity
  8
Ancontension
100
AcDbEllipse
 10
2858.685182726592
 20
-448.7649262459767
 30
0.0
 11
-3.25
 21
0.0
 31
0.0
210
0.0
220
0.0
230
1.0
 40
0.7071067811865445
 41
0.0
 42
6.283185307179585
  0
LINE
  5
15418
330
DCF2
100
AcDbEntity
  8
Ancontension
100
AcDbLine
 10
2820.039844534517
 20
-384.1759143867852
 30
0.0
 11
2813.608684786732
 21
-385.035685976987
 31
0.0
  0
ARC
  5
15419
330
DCF2
100
AcDbEntity
  8
Ancontension
100
AcDbCircle
 10
2799.960204175998
 20
-282.9439675223621
 30
0.0
 40
103.0
100
AcDbArc
 50
270.0
 51
277.6146320762975
  0
LINE
  5
1541A
330
DCF2
100
AcDbEntity
  8
Ancontension
100
AcDbLine
 10
2645.58944681107
 20
-282.9439675223621
 30
0.0
 11
2799.960204175994
 21
-282.9439675223621
 31
0.0
  0
LINE
  5
1541B
330
DCF2
100
AcDbEntity
  8
Ancontension
  6
HIDDEN1_02
100
AcDbLine
 10
2710.774825493531
 20
-312.9439675223621
 30
0.0
 11
2734.774825493532
 21
-312.9439675223621
 31
0.0
  0
LINE
  5
1541C
330
DCF2
100
AcDbEntity
  8
Ancontension
  6
HIDDEN1_02
100
AcDbLine
 10
2710.774825493531
 20
-355.9439675223623
 30
0.0
 11
2734.774825493532
 21
-355.9439675223622
 31
0.0
  0
LINE
  5
1541D
330
DCF2
100
AcDbEntity
  8
Ancontension
  6
HIDDEN1_02
100
AcDbLine
 10
2710.774825493531
 20
-312.9439675223621
 30
0.0
 11
2710.774825493531
 21
-310.4439675223622
 31
0.0
  0
LINE
  5
1541F
330
DCF2
100
AcDbEntity
  8
Ancontension
100
AcDbLine
 10
2623.774825493532
 20
-381.6587972386908
 30
0.0
 11
2623.774825493532
 21
-287.2291378060338
 31
0.0
  0
LINE
  5
15420
330
DCF2
100
AcDbEntity
  8
Ancontension
100
AcDbLine
 10
2623.77482549353
 20
-382.1935509216468
 30
0.0
 11
2623.774825493532
 21
-286.6943841230778
 31
0.0
  0
LINE
  5
15421
330
DCF2
100
AcDbEntity
  8
Ancontension
  6
HIDDEN1_02
100
AcDbLine
 10
2623.774825493532
 20
-358.4439675223622
 30
0.0
 11
2710.774825493531
 21
-358.4439675223622
 31
0.0
  0
ELLIPSE
  5
15422
330
DCF2
100
AcDbEntity
  8
Ancontension
100
AcDbEllipse
 10
2586.864468260472
 20
-365.9565437119271
 30
0.0
 11
3.25
 21
0.0
 31
0.0
210
0.0
220
0.0
230
1.0
 40
0.7071067811865445
 41
0.0
 42
6.283185307179585
  0
LINE
  5
15424
330
DCF2
100
AcDbEntity
  8
Ancontension
  6
HIDDEN1_02
100
AcDbLine
 10
2710.774825493531
 20
-358.4439675223622
 30
0.0
 11
2710.774825493531
 21
-355.9439675223623
 31
0.0
  0
ARC
  5
15425
330
DCF2
100
AcDbEntity
  8
Ancontension
100
AcDbCircle
 10
2645.58944681107
 20
-385.9439675223621
 30
0.0
 40
103.0
100
AcDbArc
 50
90.0
 51
97.61463207629757
  0
LINE
  5
15426
330
DCF2
100
AcDbEntity
  8
Ancontension
  6
HIDDEN1_02
100
AcDbLine
 10
2623.774825493532
 20
-310.4439675223622
 30
0.0
 11
2710.774825493531
 21
-310.4439675223622
 31
0.0
  0
ELLIPSE
  5
15427
330
DCF2
100
AcDbEntity
  8
Ancontension
100
AcDbEllipse
 10
2586.864468260472
 20
-302.9313913327973
 30
0.0
 11
3.25
 21
0.0
 31
0.0
210
0.0
220
0.0
230
-1.0
 40
0.7071067811865445
 41
0.0
 42
6.283185307179585
  0
ARC
  5
15428
330
DCF2
100
AcDbEntity
  8
Ancontension
100
AcDbCircle
 10
2621.774825493532
 20
-287.2291378060338
 30
0.0
 40
2.0
100
AcDbArc
 50
0.0
 51
97.61463207629757
  0
LINE
  5
15429
330
DCF2
100
AcDbEntity
  8
Ancontension
100
AcDbLine
 10
2625.509806452547
 20
-284.7120206579393
 30
0.0
 11
2631.940966200335
 21
-283.8522490677373
 31
0.0
  0
ARC
  5
1542A
330
DCF2
100
AcDbEntity
  8
Ancontension
100
AcDbCircle
 10
2625.774825493532
 20
-286.6943841230778
 30
0.0
 40
2.0
100
AcDbArc
 50
97.61463207629757
 51
180.0
  0
LINE
  5
1542B
330
DCF2
100
AcDbEntity
  8
Ancontension
  6
HIDDEN1_02
100
AcDbLine
 10
2868.274825493532
 20
-309.9439675223627
 30
0.0
 11
2868.274825493532
 21
-358.9439675223625
 31
0.0
  0
LINE
  5
1542D
330
DCF2
100
AcDbEntity
  8
Ancontension
  6
HIDDEN1_02
100
AcDbLine
 10
2734.774825493531
 20
-312.9439675223621
 30
0.0
 11
2734.774825493532
 21
-310.4439675223622
 31
0.0
  0
LINE
  5
1542E
330
DCF2
100
AcDbEntity
  8
Ancontension
100
AcDbLine
 10
2821.774825493532
 20
-381.6587972386912
 30
0.0
 11
2821.77482549353
 21
-287.2291378060342
 31
0.0
  0
LINE
  5
1542F
330
DCF2
100
AcDbEntity
  8
Ancontension
100
AcDbLine
 10
2821.774825493532
 20
-382.1935509216468
 30
0.0
 11
2821.77482549353
 21
-286.6943841230777
 31
0.0
  0
LINE
  5
15430
330
DCF2
100
AcDbEntity
  8
Ancontension
  6
HIDDEN1_02
100
AcDbLine
 10
2734.774825493532
 20
-358.4439675223622
 30
0.0
 11
2821.774825493532
 21
-358.4439675223622
 31
0.0
  0
LINE
  5
15431
330
DCF2
100
AcDbEntity
  8
Ancontension
  6
HIDDEN1_02
100
AcDbLine
 10
2734.774825493531
 20
-358.4439675223622
 30
0.0
 11
2734.774825493531
 21
-355.9439675223623
 31
0.0
  0
LINE
  5
15432
330
DCF2
100
AcDbEntity
  8
Ancontension
  6
HIDDEN1_02
100
AcDbLine
 10
2821.774825493532
 20
-358.4439675223626
 30
0.0
 11
2868.274825493532
 21
-358.4439675223626
 31
0.0
  0
ELLIPSE
  5
15433
330
DCF2
100
AcDbEntity
  8
Ancontension
100
AcDbEllipse
 10
2858.68518272659
 20
-365.9565437119276
 30
0.0
 11
-3.25
 21
0.0
 31
0.0
210
0.0
220
0.0
230
-1.0
 40
0.7071067811865445
 41
0.0
 42
6.283185307179585
  0
LINE
  5
15434
330
DCF2
100
AcDbEntity
  8
Ancontension
100
AcDbLine
 10
2820.039844534516
 20
-284.7120206579393
 30
0.0
 11
2813.608684786728
 21
-283.8522490677373
 31
0.0
  0
LINE
  5
15438
330
DCF2
100
AcDbEntity
  8
Ancontension
  6
HIDDEN1_02
100
AcDbLine
 10
2734.774825493532
 20
-310.4439675223622
 30
0.0
 11
2821.774825493532
 21
-310.4439675223622
 31
0.0
  0
ARC
  5
15439
330
DCF2
100
AcDbEntity
  8
Ancontension
100
AcDbCircle
 10
2799.960204175994
 20
-385.9439675223621
 30
0.0
 40
103.0
100
AcDbArc
 50
82.38536792370245
 51
90.0
  0
LINE
  5
1543A
330
DCF2
100
AcDbEntity
  8
Ancontension
  6
HIDDEN1_02
100
AcDbLine
 10
2821.774825493532
 20
-310.4439675223626
 30
0.0
 11
2868.274825493532
 21
-310.4439675223626
 31
0.0
  0
ARC
  5
1543B
330
DCF2
100
AcDbEntity
  8
Ancontension
100
AcDbCircle
 10
2823.774825493532
 20
-287.2291378060342
 30
0.0
 40
2.0
100
AcDbArc
 50
82.38536792370245
 51
180.0
  0
ARC
  5
1543C
330
DCF2
100
AcDbEntity
  8
Ancontension
100
AcDbCircle
 10
2819.774825493531
 20
-286.6943841230777
 30
0.0
 40
2.0
100
AcDbArc
 50
0.0
 51
82.38536792370245
  0
ELLIPSE
  5
1543D
330
DCF2
100
AcDbEntity
  8
Ancontension
100
AcDbEllipse
 10
2858.68518272659
 20
-302.9313913327977
 30
0.0
 11
-3.25
 21
0.0
 31
0.0
210
0.0
220
0.0
230
1.0
 40
0.7071067811865445
 41
0.0
 42
6.283185307179585
  0
CIRCLE
  5
1543E
330
DCF2
100
AcDbEntity
  8
Ancontension
100
AcDbCircle
 10
2722.774825493532
 20
-231.2144329626155
 30
0.0
 40
5.75
  0
ARC
  5
1543F
330
DCF2
100
AcDbEntity
  8
Ancontension
100
AcDbCircle
 10
2722.774825493532
 20
-231.2144329626155
 30
0.0
 40
18.0
100
AcDbArc
 50
44.99999999999309
 51
135.0000000000069
  0
LINE
  5
15440
330
DCF2
100
AcDbEntity
  8
Ancontension
100
AcDbLine
 10
2914.774825493532
 20
-515.5940627060945
 30
0.0
 11
2914.774825493534
 21
-444.9609421649888
 31
0.0
  0
ARC
  5
15441
330
DCF2
100
AcDbEntity
  8
Ancontension
100
AcDbCircle
 10
2912.774825493532
 20
-515.5940627060945
 30
0.0
 40
2.0
100
AcDbArc
 50
277.6146320762975
 51
0.0
  0
ARC
  5
15442
330
DCF2
100
AcDbEntity
  8
Ancontension
100
AcDbCircle
 10
2912.774825493534
 20
-444.9609421649888
 30
0.0
 40
2.0
100
AcDbArc
 50
0.0
 51
82.38536792370245
  0
LINE
  5
15443
330
DCF2
100
AcDbEntity
  8
Ancontension
100
AcDbLine
 10
2914.774825493532
 20
-369.7605277929155
 30
0.0
 11
2914.774825493534
 21
-299.1274072518098
 31
0.0
  0
ARC
  5
15444
330
DCF2
100
AcDbEntity
  8
Ancontension
100
AcDbCircle
 10
2912.774825493532
 20
-369.7605277929155
 30
0.0
 40
2.0
100
AcDbArc
 50
277.6146320762975
 51
0.0
  0
ARC
  5
15445
330
DCF2
100
AcDbEntity
  8
Ancontension
100
AcDbCircle
 10
2912.774825493532
 20
-299.1274072518098
 30
0.0
 40
2.0
100
AcDbArc
 50
0.0
 51
82.38536792370245
  0
TEXT
  5
15557
330
DCF2
100
AcDbEntity
  8
Ancontension
100
AcDbText
 10
2706.03578295165
 20
-406.0407348582954
 30
0.0
 40
10.0
  1
48
  7
ROMANS
100
AcDbText
  0
LINE
  5
1568F
330
DCF2
100
AcDbEntity
  8
Ancontension
100
AcDbLine
 10
3166.930958599482
 20
-501.9350438620655
 30
0.0
 11
3343.545944280396
 21
-501.9350438620659
 31
0.0
  0
LINE
  5
15690
330
DCF2
100
AcDbEntity
  8
Ancontension
100
AcDbLine
 10
3166.930958599482
 20
-489.9350438620656
 30
0.0
 11
3343.545944280396
 21
-489.9350438620659
 31
0.0
  0
LINE
  5
15691
330
DCF2
100
AcDbEntity
  8
Ancontension
100
AcDbLine
 10
3166.930958599483
 20
-266.93189554428
 30
0.0
 11
3242.510529378582
 21
-191.35232476518
 31
0.0
  0
LINE
  5
15692
330
DCF2
100
AcDbEntity
  8
Ancontension
100
AcDbLine
 10
3166.930958599483
 20
-266.93189554428
 30
0.0
 11
3343.545944280396
 21
-266.93189554428
 31
0.0
  0
LINE
  5
15693
330
DCF2
100
AcDbEntity
  8
Ancontension
100
AcDbLine
 10
3166.93095859948
 20
-387.9318955442797
 30
0.0
 11
3343.5459442804
 21
-387.9318955442797
 31
0.0
  0
LINE
  5
15694
330
DCF2
100
AcDbEntity
  8
Ancontension
  6
HIDDEN1_02
100
AcDbLine
 10
3140.238451439939
 20
-355.4318955442777
 30
0.0
 11
3241.23845143994
 21
-355.4318955442777
 31
0.0
  0
LINE
  5
15695
330
DCF2
100
AcDbEntity
  8
Ancontension
  6
HIDDEN1_02
100
AcDbLine
 10
3140.238451439939
 20
-299.4318955442776
 30
0.0
 11
3241.23845143994
 21
-299.4318955442776
 31
0.0
  0
LINE
  5
15698
330
DCF2
100
AcDbEntity
  8
Ancontension
100
AcDbLine
 10
3166.930958599483
 20
-435.4350438620649
 30
0.0
 11
3343.545944280396
 21
-435.4350438620649
 31
0.0
  0
LINE
  5
15699
330
DCF2
100
AcDbEntity
  8
Ancontension
  6
HIDDEN1_02
100
AcDbLine
 10
3140.238451439939
 20
-523.9350438620625
 30
0.0
 11
3241.23845143994
 21
-523.9350438620625
 31
0.0
  0
LINE
  5
1569A
330
DCF2
100
AcDbEntity
  8
Ancontension
  6
HIDDEN1_02
100
AcDbLine
 10
3140.238451439939
 20
-467.9350438620627
 30
0.0
 11
3241.23845143994
 21
-467.9350438620625
 31
0.0
  0
LINE
  5
1569B
330
DCF2
100
AcDbEntity
  8
Ancontension
100
AcDbLine
 10
3166.93095859948
 20
-556.4350438620648
 30
0.0
 11
3343.5459442804
 21
-556.4350438620648
 31
0.0
  0
LINE
  5
1569C
330
DCF2
100
AcDbEntity
  8
Ancontension
100
AcDbLine
 10
3140.238451439939
 20
-440.7936477744071
 30
0.0
 11
3140.238451439941
 21
-551.0764399497234
 31
0.0
  0
LINE
  5
1569D
330
DCF2
100
AcDbEntity
  8
Ancontension
100
AcDbLine
 10
3140.238451439941
 20
-551.748661910716
 30
0.0
 11
3140.238451439939
 21
-440.1214258134143
 31
0.0
  0
LINE
  5
1569E
330
DCF2
100
AcDbEntity
  8
Ancontension
100
AcDbLine
 10
3032.238451439939
 20
-537.2286675532746
 30
0.0
 11
3032.238451439939
 21
-454.6414201708557
 31
0.0
  0
LINE
  5
1569F
330
DCF2
100
AcDbEntity
  8
Ancontension
  6
HIDDEN1_02
100
AcDbLine
 10
3086.238451439939
 20
-467.4350438620652
 30
0.0
 11
3086.238451439939
 21
-524.435043862065
 31
0.0
  0
ELLIPSE
  5
156A0
330
DCF2
100
AcDbEntity
  8
Ancontension
100
AcDbEllipse
 10
3122.174393181788
 20
-535.2299496283435
 30
0.0
 11
4.25
 21
0.0
 31
0.0
210
0.0
220
0.0
230
1.0
 40
0.70710678118652
 41
0.0
 42
6.283185307179585
  0
LINE
  5
156A1
330
DCF2
100
AcDbEntity
  8
Ancontension
100
AcDbLine
 10
3034.405337542718
 20
-539.7063751896753
 30
0.0
 11
3137.405337542719
 21
-553.5541475861241
 31
0.0
  0
LINE
  5
156A2
330
DCF2
100
AcDbEntity
  8
Ancontension
  6
HIDDEN1_02
100
AcDbLine
 10
3140.238451439939
 20
-523.935043862065
 30
0.0
 11
3086.238451439939
 21
-523.935043862065
 31
0.0
  0
LINE
  5
156A3
330
DCF2
100
AcDbEntity
  8
Ancontension
  6
HIDDEN1_02
100
AcDbLine
 10
3086.238451439939
 20
-524.435043862065
 30
0.0
 11
3032.238451439939
 21
-524.435043862065
 31
0.0
  0
ARC
  5
156A4
330
DCF2
100
AcDbEntity
  8
Ancontension
100
AcDbCircle
 10
3034.73845143994
 20
-537.2286675532746
 30
0.0
 40
2.5
100
AcDbArc
 50
180.0
 51
262.3428187224131
  0
ARC
  5
156A5
330
DCF2
100
AcDbEntity
  8
Ancontension
100
AcDbCircle
 10
3166.930958599479
 20
-435.4350438620648
 30
0.0
 40
121.0
100
AcDbArc
 50
262.3428187224131
 51
270.0
  0
ARC
  5
156A6
330
DCF2
100
AcDbEntity
  8
Ancontension
100
AcDbCircle
 10
3137.738451439941
 20
-551.0764399497234
 30
0.0
 40
2.5
100
AcDbArc
 50
262.3428187224131
 51
0.0
  0
ARC
  5
156A7
330
DCF2
100
AcDbEntity
  8
Ancontension
100
AcDbCircle
 10
3142.738451439941
 20
-551.748661910716
 30
0.0
 40
2.5
100
AcDbArc
 50
180.0
 51
262.3428187224131
  0
LINE
  5
156A8
330
DCF2
100
AcDbEntity
  8
Ancontension
100
AcDbLine
 10
3142.405337542719
 20
-554.2263695471167
 30
0.0
 11
3150.808245973956
 21
-555.3560934638539
 31
0.0
  0
LINE
  5
156A9
330
DCF2
100
AcDbEntity
  8
Ancontension
100
AcDbLine
 10
3166.930958599482
 20
-489.9350438620656
 30
0.0
 11
3166.930958599482
 21
-501.9350438620655
 31
0.0
  0
ELLIPSE
  5
156AA
330
DCF2
100
AcDbEntity
  8
Ancontension
100
AcDbEllipse
 10
3122.174393181788
 20
-366.7268013105584
 30
0.0
 11
4.25
 21
0.0
 31
0.0
210
0.0
220
0.0
230
1.0
 40
0.70710678118652
 41
0.0
 42
6.283185307179585
  0
LINE
  5
156AC
330
DCF2
100
AcDbEntity
  8
Ancontension
100
AcDbLine
 10
3140.238451439941
 20
-383.2455135929311
 30
0.0
 11
3140.238451439939
 21
-271.6182774956295
 31
0.0
  0
LINE
  5
156AD
330
DCF2
100
AcDbEntity
  8
Ancontension
100
AcDbLine
 10
3140.238451439939
 20
-272.2904994566221
 30
0.0
 11
3140.238451439941
 21
-382.5732916319385
 31
0.0
  0
LINE
  5
156AE
330
DCF2
100
AcDbEntity
  8
Ancontension
100
AcDbLine
 10
3032.238451439939
 20
-368.7255192354896
 30
0.0
 11
3032.238451439939
 21
-286.1382718530708
 31
0.0
  0
ELLIPSE
  5
156AF
330
DCF2
100
AcDbEntity
  8
Ancontension
100
AcDbEllipse
 10
3122.174393181788
 20
-456.6401380957868
 30
0.0
 11
4.25
 21
0.0
 31
0.0
210
0.0
220
0.0
230
-1.0
 40
0.70710678118652
 41
0.0
 42
6.283185307179585
  0
LINE
  5
156B0
330
DCF2
100
AcDbEntity
  8
Ancontension
100
AcDbLine
 10
3034.405337542718
 20
-371.2032268718903
 30
0.0
 11
3137.405337542719
 21
-385.0509992683392
 31
0.0
  0
LINE
  5
156B1
330
DCF2
100
AcDbEntity
  8
Ancontension
100
AcDbLine
 10
3034.405337542718
 20
-452.1637125344551
 30
0.0
 11
3137.405337542718
 21
-438.3159401380065
 31
0.0
  0
LINE
  5
156B2
330
DCF2
100
AcDbEntity
  8
Ancontension
  6
HIDDEN1_02
100
AcDbLine
 10
3140.238451439939
 20
-467.9350438620652
 30
0.0
 11
3086.238451439939
 21
-467.9350438620652
 31
0.0
  0
LINE
  5
156B3
330
DCF2
100
AcDbEntity
  8
Ancontension
  6
HIDDEN1_02
100
AcDbLine
 10
3086.238451439939
 20
-467.4350438620652
 30
0.0
 11
3032.238451439939
 21
-467.4350438620652
 31
0.0
  0
ARC
  5
156B4
330
DCF2
100
AcDbEntity
  8
Ancontension
100
AcDbCircle
 10
3034.73845143994
 20
-454.6414201708557
 30
0.0
 40
2.5
100
AcDbArc
 50
97.65718127758674
 51
180.0
  0
ARC
  5
156B5
330
DCF2
100
AcDbEntity
  8
Ancontension
100
AcDbCircle
 10
3034.73845143994
 20
-368.7255192354896
 30
0.0
 40
2.5
100
AcDbArc
 50
180.0
 51
262.3428187224131
  0
ARC
  5
156B6
330
DCF2
100
AcDbEntity
  8
Ancontension
100
AcDbCircle
 10
3166.930958599484
 20
-556.4350438620648
 30
0.0
 40
121.0
100
AcDbArc
 50
90.0
 51
97.65718127758674
  0
ARC
  5
156B7
330
DCF2
100
AcDbEntity
  8
Ancontension
100
AcDbCircle
 10
3137.738451439939
 20
-440.7936477744071
 30
0.0
 40
2.5
100
AcDbArc
 50
0.0
 51
97.65718127758674
  0
ARC
  5
156B8
330
DCF2
100
AcDbEntity
  8
Ancontension
100
AcDbCircle
 10
3142.738451439939
 20
-440.1214258134143
 30
0.0
 40
2.5
100
AcDbArc
 50
97.65718127758674
 51
180.0
  0
LINE
  5
156B9
330
DCF2
100
AcDbEntity
  8
Ancontension
100
AcDbLine
 10
3142.405337542719
 20
-437.6437181770137
 30
0.0
 11
3150.808245973961
 21
-436.5139942602756
 31
0.0
  0
ARC
  5
156BA
330
DCF2
100
AcDbEntity
  8
Ancontension
100
AcDbCircle
 10
3166.930958599479
 20
-266.9318955442798
 30
0.0
 40
121.0
100
AcDbArc
 50
262.3428187224131
 51
270.0
  0
ARC
  5
156BB
330
DCF2
100
AcDbEntity
  8
Ancontension
100
AcDbCircle
 10
3137.738451439941
 20
-382.5732916319385
 30
0.0
 40
2.5
100
AcDbArc
 50
262.3428187224131
 51
0.0
  0
LINE
  5
156BC
330
DCF2
100
AcDbEntity
  8
Ancontension
100
AcDbLine
 10
3142.405337542719
 20
-385.7232212293316
 30
0.0
 11
3150.808245973956
 21
-386.8529451460691
 31
0.0
  0
ARC
  5
156BD
330
DCF2
100
AcDbEntity
  8
Ancontension
100
AcDbCircle
 10
3142.738451439941
 20
-383.2455135929311
 30
0.0
 40
2.5
100
AcDbArc
 50
180.0
 51
262.3428187224131
  0
ELLIPSE
  5
156BE
330
DCF2
100
AcDbEntity
  8
Ancontension
100
AcDbEllipse
 10
3122.174393181788
 20
-288.1369897780018
 30
0.0
 11
4.25
 21
0.0
 31
0.0
210
0.0
220
0.0
230
-1.0
 40
0.70710678118652
 41
0.0
 42
6.283185307179585
  0
LINE
  5
156BF
330
DCF2
100
AcDbEntity
  8
Ancontension
100
AcDbLine
 10
3034.405337542718
 20
-283.6605642166702
 30
0.0
 11
3137.405337542718
 21
-269.8127918202215
 31
0.0
  0
LINE
  5
156C0
330
DCF2
100
AcDbEntity
  8
Ancontension
  6
HIDDEN1_02
100
AcDbLine
 10
3140.238451439939
 20
-355.4318955442801
 30
0.0
 11
3086.238451439939
 21
-355.4318955442801
 31
0.0
  0
LINE
  5
156C1
330
DCF2
100
AcDbEntity
  8
Ancontension
  6
HIDDEN1_02
100
AcDbLine
 10
3140.238451439939
 20
-299.4318955442802
 30
0.0
 11
3086.238451439939
 21
-299.4318955442802
 31
0.0
  0
LINE
  5
156C2
330
DCF2
100
AcDbEntity
  8
Ancontension
  6
HIDDEN1_02
100
AcDbLine
 10
3086.238451439939
 20
-298.9318955442802
 30
0.0
 11
3032.238451439939
 21
-298.9318955442802
 31
0.0
  0
LINE
  5
156C3
330
DCF2
100
AcDbEntity
  8
Ancontension
  6
HIDDEN1_02
100
AcDbLine
 10
3086.238451439939
 20
-355.9318955442801
 30
0.0
 11
3032.238451439939
 21
-355.9318955442801
 31
0.0
  0
LINE
  5
156C4
330
DCF2
100
AcDbEntity
  8
Ancontension
  6
HIDDEN1_02
100
AcDbLine
 10
3086.238451439939
 20
-298.9318955442802
 30
0.0
 11
3086.238451439939
 21
-355.9318955442801
 31
0.0
  0
ARC
  5
156C5
330
DCF2
100
AcDbEntity
  8
Ancontension
100
AcDbCircle
 10
3034.73845143994
 20
-286.1382718530708
 30
0.0
 40
2.5
100
AcDbArc
 50
97.65718127758674
 51
180.0
  0
ARC
  5
156C7
330
DCF2
100
AcDbEntity
  8
Ancontension
100
AcDbCircle
 10
3166.930958599484
 20
-387.93189554428
 30
0.0
 40
121.0
100
AcDbArc
 50
90.0
 51
97.65718127758674
  0
ARC
  5
156C8
330
DCF2
100
AcDbEntity
  8
Ancontension
100
AcDbCircle
 10
3137.738451439939
 20
-272.2904994566221
 30
0.0
 40
2.5
100
AcDbArc
 50
0.0
 51
97.65718127758674
  0
LINE
  5
156C9
330
DCF2
100
AcDbEntity
  8
Ancontension
100
AcDbLine
 10
3142.405337542719
 20
-269.1405698592288
 30
0.0
 11
3150.808245973961
 21
-268.0108459424906
 31
0.0
  0
ARC
  5
156CA
330
DCF2
100
AcDbEntity
  8
Ancontension
100
AcDbCircle
 10
3142.738451439939
 20
-271.6182774956295
 30
0.0
 40
2.5
100
AcDbArc
 50
97.65718127758674
 51
180.0
  0
LINE
  5
156CB
330
DCF2
100
AcDbEntity
  8
Ancontension
100
AcDbLine
 10
3370.238451439939
 20
-440.7936477744072
 30
0.0
 11
3370.238451439937
 21
-551.0764399497235
 31
0.0
  0
LINE
  5
156CC
330
DCF2
100
AcDbEntity
  8
Ancontension
  6
HIDDEN1_02
100
AcDbLine
 10
3424.238451439939
 20
-467.4350438620653
 30
0.0
 11
3424.238451439939
 21
-524.4350438620653
 31
0.0
  0
LINE
  5
156CD
330
DCF2
100
AcDbEntity
  8
Ancontension
100
AcDbLine
 10
3478.238451439938
 20
-537.2286675532746
 30
0.0
 11
3478.238451439938
 21
-454.6414201708557
 31
0.0
  0
LINE
  5
156CE
330
DCF2
100
AcDbEntity
  8
Ancontension
100
AcDbLine
 10
3370.238451439937
 20
-551.748661910716
 30
0.0
 11
3370.238451439939
 21
-440.1214258134143
 31
0.0
  0
ARC
  5
156D0
330
DCF2
100
AcDbEntity
  8
Ancontension
100
AcDbCircle
 10
3343.545944280401
 20
-435.4350438620648
 30
0.0
 40
121.0
100
AcDbArc
 50
270.0
 51
277.6571812775866
  0
ARC
  5
156D1
330
DCF2
100
AcDbEntity
  8
Ancontension
100
AcDbCircle
 10
3367.738451439937
 20
-551.748661910716
 30
0.0
 40
2.5
100
AcDbArc
 50
277.6571812775866
 51
0.0
  0
LINE
  5
156D2
330
DCF2
100
AcDbEntity
  8
Ancontension
100
AcDbLine
 10
3368.07156533716
 20
-554.2263695471167
 30
0.0
 11
3359.668656905923
 21
-555.3560934638539
 31
0.0
  0
LINE
  5
156D3
330
DCF2
100
AcDbEntity
  8
Ancontension
  6
HIDDEN1_02
100
AcDbLine
 10
3269.238451439939
 20
-523.9350438620625
 30
0.0
 11
3370.23845143994
 21
-523.9350438620625
 31
0.0
  0
LINE
  5
156D4
330
DCF2
100
AcDbEntity
  8
Ancontension
  6
HIDDEN1_02
100
AcDbLine
 10
3241.23845143994
 20
-521.1850438620639
 30
0.0
 11
3269.238451439939
 21
-521.1850438620642
 31
0.0
  0
LINE
  5
156D5
330
DCF2
100
AcDbEntity
  8
Ancontension
  6
HIDDEN1_02
100
AcDbLine
 10
3241.23845143994
 20
-523.9350438620626
 30
0.0
 11
3241.23845143994
 21
-521.1850438620642
 31
0.0
  0
LINE
  5
156D6
330
DCF2
100
AcDbEntity
  8
Ancontension
  6
HIDDEN1_02
100
AcDbLine
 10
3269.238451439939
 20
-523.9350438620625
 30
0.0
 11
3269.238451439939
 21
-521.1850438620643
 31
0.0
  0
LINE
  5
156D7
330
DCF2
100
AcDbEntity
  8
Ancontension
  6
HIDDEN1_02
100
AcDbLine
 10
3260.988451439937
 20
-489.9350438620656
 30
0.0
 11
3260.988451439937
 21
-501.9350438620656
 31
0.0
  0
LINE
  5
156D8
330
DCF2
100
AcDbEntity
  8
Ancontension
  6
HIDDEN1_02
100
AcDbLine
 10
3249.488451439939
 20
-489.9350438620656
 30
0.0
 11
3249.488451439939
 21
-501.9350438620656
 31
0.0
  0
LINE
  5
156D9
330
DCF2
100
AcDbEntity
  8
Ancontension
100
AcDbLine
 10
3343.545944280396
 20
-489.9350438620663
 30
0.0
 11
3343.545944280396
 21
-501.935043862066
 31
0.0
  0
LINE
  5
156DA
330
DCF2
100
AcDbEntity
  8
Ancontension
100
AcDbLine
 10
3476.071565337161
 20
-539.7063751896753
 30
0.0
 11
3373.071565337159
 21
-553.5541475861241
 31
0.0
  0
ARC
  5
156DB
330
DCF2
100
AcDbEntity
  8
Ancontension
100
AcDbCircle
 10
3372.738451439939
 20
-551.0764399497235
 30
0.0
 40
2.5
100
AcDbArc
 50
180.0
 51
277.6571812775866
  0
LINE
  5
156DC
330
DCF2
100
AcDbEntity
  8
Ancontension
  6
HIDDEN1_02
100
AcDbLine
 10
3424.238451439939
 20
-524.4350438620653
 30
0.0
 11
3478.238451439937
 21
-524.4350438620653
 31
0.0
  0
LINE
  5
156DD
330
DCF2
100
AcDbEntity
  8
Ancontension
  6
HIDDEN1_02
100
AcDbLine
 10
3370.238451439939
 20
-523.9350438620653
 30
0.0
 11
3424.238451439939
 21
-523.9350438620653
 31
0.0
  0
ELLIPSE
  5
156DE
330
DCF2
100
AcDbEntity
  8
Ancontension
100
AcDbEllipse
 10
3388.302509698091
 20
-535.2299496283435
 30
0.0
 11
-4.25
 21
0.0
 31
0.0
210
0.0
220
0.0
230
-1.0
 40
0.70710678118652
 41
0.0
 42
6.283185307179585
  0
ARC
  5
156DF
330
DCF2
100
AcDbEntity
  8
Ancontension
100
AcDbCircle
 10
3475.738451439939
 20
-537.2286675532746
 30
0.0
 40
2.5
100
AcDbArc
 50
277.6571812775866
 51
0.0
  0
LINE
  5
156E1
330
DCF2
100
AcDbEntity
  8
Ancontension
100
AcDbLine
 10
3343.545944280396
 20
-266.93189554428
 30
0.0
 11
3267.966373501298
 21
-191.35232476518
 31
0.0
  0
ELLIPSE
  5
156E3
330
DCF2
100
AcDbEntity
  8
Ancontension
100
AcDbEllipse
 10
3388.302509698091
 20
-366.7268013105584
 30
0.0
 11
-4.25
 21
0.0
 31
0.0
210
0.0
220
0.0
230
-1.0
 40
0.70710678118652
 41
0.0
 42
6.283185307179585
  0
LINE
  5
156E4
330
DCF2
100
AcDbEntity
  8
Ancontension
100
AcDbLine
 10
3478.238451439938
 20
-368.7255192354896
 30
0.0
 11
3478.238451439938
 21
-286.1382718530709
 31
0.0
  0
LINE
  5
156E6
330
DCF2
100
AcDbEntity
  8
Ancontension
100
AcDbLine
 10
3370.238451439937
 20
-383.2455135929312
 30
0.0
 11
3370.238451439939
 21
-271.6182774956295
 31
0.0
  0
LINE
  5
156E7
330
DCF2
100
AcDbEntity
  8
Ancontension
100
AcDbLine
 10
3370.238451439939
 20
-272.2904994566221
 30
0.0
 11
3370.238451439937
 21
-382.5732916319385
 31
0.0
  0
LINE
  5
156E8
330
DCF2
100
AcDbEntity
  8
Ancontension
  6
HIDDEN1_02
100
AcDbLine
 10
3269.238451439939
 20
-467.9350438620625
 30
0.0
 11
3370.23845143994
 21
-467.9350438620627
 31
0.0
  0
LINE
  5
156E9
330
DCF2
100
AcDbEntity
  8
Ancontension
  6
HIDDEN1_02
100
AcDbLine
 10
3269.238451439939
 20
-470.6850438620644
 30
0.0
 11
3269.238451439939
 21
-467.9350438620625
 31
0.0
  0
LINE
  5
156EA
330
DCF2
100
AcDbEntity
  8
Ancontension
  6
HIDDEN1_02
100
AcDbLine
 10
3241.23845143994
 20
-470.685043862064
 30
0.0
 11
3241.23845143994
 21
-467.9350438620625
 31
0.0
  0
LINE
  5
156EB
330
DCF2
100
AcDbEntity
  8
Ancontension
  6
HIDDEN1_02
100
AcDbLine
 10
3241.23845143994
 20
-470.685043862064
 30
0.0
 11
3269.238451439939
 21
-470.6850438620641
 31
0.0
  0
ARC
  5
156EC
330
DCF2
100
AcDbEntity
  8
Ancontension
100
AcDbCircle
 10
3343.545944280396
 20
-556.4350438620648
 30
0.0
 40
121.0
100
AcDbArc
 50
82.34281872241325
 51
90.0
  0
LINE
  5
156ED
330
DCF2
100
AcDbEntity
  8
Ancontension
100
AcDbLine
 10
3368.07156533716
 20
-437.6437181770137
 30
0.0
 11
3359.668656905919
 21
-436.5139942602756
 31
0.0
  0
ARC
  5
156EE
330
DCF2
100
AcDbEntity
  8
Ancontension
100
AcDbCircle
 10
3367.738451439939
 20
-440.1214258134143
 30
0.0
 40
2.5
100
AcDbArc
 50
0.0
 51
82.34281872241325
  0
ARC
  5
156F0
330
DCF2
100
AcDbEntity
  8
Ancontension
100
AcDbCircle
 10
3343.545944280401
 20
-266.9318955442798
 30
0.0
 40
121.0
100
AcDbArc
 50
270.0
 51
277.6571812775866
  0
LINE
  5
156F1
330
DCF2
100
AcDbEntity
  8
Ancontension
100
AcDbLine
 10
3368.07156533716
 20
-385.7232212293319
 30
0.0
 11
3359.668656905923
 21
-386.8529451460691
 31
0.0
  0
ARC
  5
156F2
330
DCF2
100
AcDbEntity
  8
Ancontension
100
AcDbCircle
 10
3367.738451439937
 20
-383.2455135929312
 30
0.0
 40
2.5
100
AcDbArc
 50
277.6571812775866
 51
0.0
  0
LINE
  5
156F3
330
DCF2
100
AcDbEntity
  8
Ancontension
100
AcDbLine
 10
3476.071565337161
 20
-452.1637125344551
 30
0.0
 11
3373.071565337161
 21
-438.3159401380066
 31
0.0
  0
LINE
  5
156F4
330
DCF2
100
AcDbEntity
  8
Ancontension
  6
HIDDEN1_02
100
AcDbLine
 10
3424.238451439939
 20
-467.4350438620653
 30
0.0
 11
3478.238451439937
 21
-467.4350438620653
 31
0.0
  0
LINE
  5
156F5
330
DCF2
100
AcDbEntity
  8
Ancontension
  6
HIDDEN1_02
100
AcDbLine
 10
3370.238451439939
 20
-467.9350438620653
 30
0.0
 11
3424.238451439939
 21
-467.9350438620653
 31
0.0
  0
ELLIPSE
  5
156F6
330
DCF2
100
AcDbEntity
  8
Ancontension
100
AcDbEllipse
 10
3388.302509698091
 20
-456.6401380957868
 30
0.0
 11
-4.25
 21
0.0
 31
0.0
210
0.0
220
0.0
230
1.0
 40
0.70710678118652
 41
0.0
 42
6.283185307179585
  0
ARC
  5
156F7
330
DCF2
100
AcDbEntity
  8
Ancontension
100
AcDbCircle
 10
3372.738451439939
 20
-440.7936477744072
 30
0.0
 40
2.5
100
AcDbArc
 50
82.34281872241325
 51
180.0
  0
ARC
  5
156F8
330
DCF2
100
AcDbEntity
  8
Ancontension
100
AcDbCircle
 10
3475.738451439939
 20
-454.6414201708557
 30
0.0
 40
2.5
100
AcDbArc
 50
0.0
 51
82.34281872241325
  0
LINE
  5
156F9
330
DCF2
100
AcDbEntity
  8
Ancontension
100
AcDbLine
 10
3476.071565337161
 20
-371.2032268718903
 30
0.0
 11
3373.071565337159
 21
-385.0509992683392
 31
0.0
  0
ARC
  5
156FA
330
DCF2
100
AcDbEntity
  8
Ancontension
100
AcDbCircle
 10
3372.738451439939
 20
-382.5732916319385
 30
0.0
 40
2.5
100
AcDbArc
 50
180.0
 51
277.6571812775866
  0
ARC
  5
156FB
330
DCF2
100
AcDbEntity
  8
Ancontension
100
AcDbCircle
 10
3475.738451439939
 20
-368.7255192354896
 30
0.0
 40
2.5
100
AcDbArc
 50
277.6571812775866
 51
0.0
  0
LINE
  5
156FD
330
DCF2
100
AcDbEntity
  8
Ancontension
  6
HIDDEN1_02
100
AcDbLine
 10
3269.238451439939
 20
-299.4318955442776
 30
0.0
 11
3370.23845143994
 21
-299.4318955442776
 31
0.0
  0
LINE
  5
156FE
330
DCF2
100
AcDbEntity
  8
Ancontension
  6
HIDDEN1_02
100
AcDbLine
 10
3269.238451439939
 20
-355.4318955442777
 30
0.0
 11
3370.23845143994
 21
-355.4318955442777
 31
0.0
  0
LINE
  5
15700
330
DCF2
100
AcDbEntity
  8
Ancontension
  6
HIDDEN1_02
100
AcDbLine
 10
3241.23845143994
 20
-352.6818955442791
 30
0.0
 11
3269.238451439939
 21
-352.6818955442792
 31
0.0
  0
LINE
  5
15701
330
DCF2
100
AcDbEntity
  8
Ancontension
  6
HIDDEN1_02
100
AcDbLine
 10
3241.23845143994
 20
-355.4318955442777
 30
0.0
 11
3241.23845143994
 21
-352.6818955442792
 31
0.0
  0
LINE
  5
15702
330
DCF2
100
AcDbEntity
  8
Ancontension
  6
HIDDEN1_02
100
AcDbLine
 10
3269.238451439939
 20
-355.4318955442777
 30
0.0
 11
3269.238451439939
 21
-352.6818955442795
 31
0.0
  0
LINE
  5
15703
330
DCF2
100
AcDbEntity
  8
Ancontension
  6
HIDDEN1_02
100
AcDbLine
 10
3241.23845143994
 20
-302.1818955442789
 30
0.0
 11
3269.238451439939
 21
-302.1818955442792
 31
0.0
  0
LINE
  5
15704
330
DCF2
100
AcDbEntity
  8
Ancontension
  6
HIDDEN1_02
100
AcDbLine
 10
3241.23845143994
 20
-302.1818955442789
 30
0.0
 11
3241.23845143994
 21
-299.4318955442776
 31
0.0
  0
LINE
  5
15705
330
DCF2
100
AcDbEntity
  8
Ancontension
  6
HIDDEN1_02
100
AcDbLine
 10
3269.238451439939
 20
-302.1818955442793
 30
0.0
 11
3269.238451439939
 21
-299.4318955442776
 31
0.0
  0
ARC
  5
15707
330
DCF2
100
AcDbEntity
  8
Ancontension
100
AcDbCircle
 10
3343.545944280396
 20
-387.93189554428
 30
0.0
 40
121.0
100
AcDbArc
 50
82.34281872241325
 51
90.0
  0
LINE
  5
15708
330
DCF2
100
AcDbEntity
  8
Ancontension
100
AcDbLine
 10
3368.07156533716
 20
-269.1405698592288
 30
0.0
 11
3359.668656905919
 21
-268.0108459424906
 31
0.0
  0
ARC
  5
15709
330
DCF2
100
AcDbEntity
  8
Ancontension
100
AcDbCircle
 10
3367.738451439939
 20
-271.6182774956295
 30
0.0
 40
2.5
100
AcDbArc
 50
0.0
 51
82.34281872241325
  0
LINE
  5
1570C
330
DCF2
100
AcDbEntity
  8
Ancontension
  6
HIDDEN1_02
100
AcDbLine
 10
3424.238451439939
 20
-298.9318955442803
 30
0.0
 11
3478.238451439937
 21
-298.9318955442803
 31
0.0
  0
LINE
  5
1570D
330
DCF2
100
AcDbEntity
  8
Ancontension
  6
HIDDEN1_02
100
AcDbLine
 10
3424.238451439939
 20
-355.9318955442803
 30
0.0
 11
3478.238451439937
 21
-355.9318955442803
 31
0.0
  0
LINE
  5
1570E
330
DCF2
100
AcDbEntity
  8
Ancontension
  6
HIDDEN1_02
100
AcDbLine
 10
3424.238451439939
 20
-298.9318955442803
 30
0.0
 11
3424.238451439939
 21
-355.9318955442803
 31
0.0
  0
LINE
  5
1570F
330
DCF2
100
AcDbEntity
  8
Ancontension
  6
HIDDEN1_02
100
AcDbLine
 10
3370.238451439939
 20
-355.4318955442803
 30
0.0
 11
3424.238451439939
 21
-355.4318955442803
 31
0.0
  0
LINE
  5
15710
330
DCF2
100
AcDbEntity
  8
Ancontension
  6
HIDDEN1_02
100
AcDbLine
 10
3370.238451439939
 20
-299.4318955442803
 30
0.0
 11
3424.238451439939
 21
-299.4318955442803
 31
0.0
  0
LINE
  5
15711
330
DCF2
100
AcDbEntity
  8
Ancontension
100
AcDbLine
 10
3476.071565337161
 20
-283.6605642166702
 30
0.0
 11
3373.071565337161
 21
-269.8127918202215
 31
0.0
  0
ELLIPSE
  5
15712
330
DCF2
100
AcDbEntity
  8
Ancontension
100
AcDbEllipse
 10
3388.302509698091
 20
-288.136989778002
 30
0.0
 11
-4.25
 21
0.0
 31
0.0
210
0.0
220
0.0
230
1.0
 40
0.70710678118652
 41
0.0
 42
6.283185307179585
  0
ARC
  5
15713
330
DCF2
100
AcDbEntity
  8
Ancontension
100
AcDbCircle
 10
3372.738451439939
 20
-272.2904994566221
 30
0.0
 40
2.5
100
AcDbArc
 50
82.34281872241325
 51
180.0
  0
ARC
  5
15714
330
DCF2
100
AcDbEntity
  8
Ancontension
100
AcDbCircle
 10
3475.738451439939
 20
-286.1382718530709
 30
0.0
 40
2.5
100
AcDbArc
 50
0.0
 51
82.34281872241325
  0
CIRCLE
  5
15716
330
DCF2
100
AcDbEntity
  8
Ancontension
100
AcDbCircle
 10
3255.238451439939
 20
-204.080246826538
 30
0.0
 40
5.75
  0
ARC
  5
15717
330
DCF2
100
AcDbEntity
  8
Ancontension
100
AcDbCircle
 10
3255.238451439939
 20
-204.080246826538
 30
0.0
 40
18.0
100
AcDbArc
 50
44.99999999999078
 51
135.0000000000092
  0
TEXT
  5
15836
330
DCF2
100
AcDbEntity
  8
Ancontension
100
AcDbText
 10
3238.499408898057
 20
-408.028662880213
 30
0.0
 40
10.0
  1
56
  7
ROMANS
100
AcDbText
  0
TEXT
  5
1583A
330
DCF2
100
AcDbEntity
  8
Ancontension
100
AcDbText
 10
2625.766748060445
 20
309.0905767063456
 30
0.0
 40
40.0
  1
COUPLERS WITH HANGER
  7
ROMANS
100
AcDbText
  0
VIEWPORT
  5
1077E
330
10777
100
AcDbEntity
 67
     1
  8
0
100
AcDbViewport
 10
5.649584071842704
 20
3.9337497996533
 30
0.0
 40
13.59960971915711
 41
8.742606248029574
 68
     1
 69
     1
 12
5.649584071842704
 22
3.9337497996533
 13
0.0
 23
0.0
 14
10.0
 24
10.0
 15
10.0
 25
10.0
 16
0.0
 26
0.0
 36
1.0
 17
0.0
 27
0.0
 37
0.0
 42
50.0
 43
0.0
 44
0.0
 45
8.742606248029574
 50
0.0
 51
0.0
 72
   100
 90
    32800
  1

281
     0
 71
     1
 74
     0
110
0.0
120
0.0
130
0.0
111
1.0
121
0.0
131
0.0
112
0.0
122
1.0
132
0.0
 79
     0
146
0.0
  0
VIEWPORT
  5
10780
330
10777
100
AcDbEntity
 67
     1
  8
DEFPOINTS
100
AcDbViewport
 10
5.649583752699723
 20
3.933750081250048
 30
0.0
 40
9.03933400431956
 41
6.294000130000076
 68
     2
 69
     2
 12
387.5355434982203
 22
270.7623806840798
 13
0.0
 23
0.0
 14
0.5
 24
0.5
 15
0.0
 25
0.0
 16
0.0
 26
0.0
 36
1.0
 17
0.0
 27
0.0
 37
0.0
 42
50.0
 43
0.0
 44
0.0
 45
90.26230401032616
 50
0.0
 51
0.0
 72
   100
 90
    32808
  1

281
     0
 71
     1
 74
     0
110
0.0
120
0.0
130
0.0
111
1.0
121
0.0
131
0.0
112
0.0
122
1.0
132
0.0
 79
     0
146
0.0
  0
ENDSEC
  0
SECTION
  2
OBJECTS
  0
DICTIONARY
  5
DCE7
330
0
100
AcDbDictionary
281
     1
  3
ACAD_GROUP
350
DCE8
  3
ACAD_LAYOUT
350
EBBD
  3
ACAD_MLINESTYLE
350
DCF5
  3
ACAD_PLOTSETTINGS
350
EBBE
  3
ACAD_PLOTSTYLENAME
350
EBBB
  3
AcadDim
350
EC1C
  3
ACDBHEADERROUNDTRIPXREC
350
1595B
  3
ACDBVARIABLEDICTIONARY
350
DD3A
  3
AVE_ACITABLE
350
EA5F
  0
DICTIONARY
  5
1586E
330
DCF2
100
AcDbDictionary
280
     1
281
     1
  3
ACAD_LAYOUTSELFREF
360
1586F
  0
DICTIONARY
  5
15847
330
10777
100
AcDbDictionary
280
     1
281
     1
  3
ACAD_LAYOUTSELFREF
360
1587C
  0
DICTIONARY
  5
DCE8
102
{ACAD_REACTORS
330
DCE7
102
}
330
DCE7
100
AcDbDictionary
281
     1
  0
DICTIONARY
  5
EBBD
102
{ACAD_REACTORS
330
DCE7
102
}
330
DCE7
100
AcDbDictionary
281
     1
  3
Layout1
350
10778
  3
Model
350
EBBF
  0
DICTIONARY
  5
DCF5
102
{ACAD_REACTORS
330
DCE7
102
}
330
DCE7
100
AcDbDictionary
281
     1
  3
STANDARD
350
DCF6
  0
DICTIONARY
  5
EBBE
102
{ACAD_REACTORS
330
DCE7
102
}
330
DCE7
100
AcDbDictionary
281
     1
  0
ACDBDICTIONARYWDFLT
  5
EBBB
102
{ACAD_REACTORS
330
DCE7
102
}
330
DCE7
100
AcDbDictionary
281
     1
  3
Normal
350
EBBC
100
AcDbDictionaryWithDefault
340
EBBC
  0
XRECORD
  5
EC1C
102
{ACAD_REACTORS
330
DCE7
102
}
330
DCE7
100
AcDbXrecord
280
     1
 90
   990106
  3

 60
     0
 61
     0
 62
     1
 63
     3
 64
     0
 65
     0
 66
     0
 67
     3
 68
     1
 69
     0
 70
     0
 71
     0
 72
     0
 40
0.0
170
     0
340
0
  0
DICTIONARY
  5
1595B
102
{ACAD_REACTORS
330
DCE7
102
}
330
DCE7
100
AcDbDictionary
281
     1
  3
CEPSNTYPE
350
15965
  3
DIMSTYLEDATA
350
15969
  3
FINGERPRINTGUID
350
15966
  3
HYPERLINKBASE
350
1595E
  3
INSUNITS
350
15964
  3
LAYOUTDICT
350
15960
  3
LWETCUNION
350
15963
  3
PLOTSETDICT
350
15961
  3
PLOTSTYLNAMDICT
350
15962
  3
PSVPSCALE
350
15968
  3
PUCSBASE
350
1596C
  3
PUCSORGBACK
350
15972
  3
PUCSORGBOTTOM
350
1596E
  3
PUCSORGFRONT
350
15971
  3
PUCSORGLEFT
350
1596F
  3
PUCSORGRIGHT
350
15970
  3
PUCSORGTOP
350
1596D
  3
PUCSORTHOREF
350
1596A
  3
PUCSORTHOVIEW
350
1596B
  3
STYLESHEET
350
1595F
  3
TSTACKALIGN
350
1595C
  3
TSTACKSIZE
350
1595D
  3
UCSBASE
350
15975
  3
UCSORGBACK
350
1597B
  3
UCSORGBOTTOM
350
15977
  3
UCSORGFRONT
350
1597A
  3
UCSORGLEFT
350
15978
  3
UCSORGRIGHT
350
15979
  3
UCSORGTOP
350
15976
  3
UCSORTHOREF
350
15973
  3
UCSORTHOVIEW
350
15974
  3
VERSIONGUID
350
15967
  0
DICTIONARY
  5
DD3A
102
{ACAD_REACTORS
330
DCE7
102
}
330
DCE7
100
AcDbDictionary
281
     1
  3
DIMADEC
350
DD3B
  3
DIMASSOC
350
EC17
  3
SORTENTS
350
E79F
  0
DICTIONARY
  5
EA5F
102
{ACAD_REACTORS
330
DCE7
102
}
330
DCE7
100
AcDbDictionary
281
     1
  0
XRECORD
  5
1586F
102
{ACAD_REACTORS
330
1586E
102
}
330
1586E
100
AcDbXrecord
280
     1
340
DCF2
  0
XRECORD
  5
1587C
102
{ACAD_REACTORS
330
15847
102
}
330
15847
100
AcDbXrecord
280
     1
340
10777
  0
LAYOUT
  5
10778
102
{ACAD_REACTORS
330
EBBD
102
}
330
EBBD
100
AcDbPlotSettings
  1

  2
\\Zeus\Xerox-Export
  4
A4
  6

 40
5.027083396911621
 41
5.027085304260253
 42
5.027069091796875
 43
5.027069091796875
 44
209.8886566162109
 45
297.0530090332031
 46
0.0
 47
0.0
 48
0.0
 49
0.0
140
0.0
141
0.0
142
1.0
143
1.0
 70
   688
 72
     0
 73
     1
 74
     5
  7

 75
    16
147
1.0
148
0.0
149
0.0
100
AcDbLayout
  1
Layout1
 70
     1
 71
     1
 10
-0.1979161059762549
 20
-0.1979166691697489
 11
11.49708424966165
 21
8.065416268476351
 12
0.0
 22
0.0
 32
0.0
 14
1.129916750539944
 24
0.78675001625001
 34
0.0
 15
10.1692507548595
 25
7.080750146250085
 35
0.0
146
0.0
 13
0.0
 23
0.0
 33
0.0
 16
1.0
 26
0.0
 36
0.0
 17
0.0
 27
1.0
 37
0.0
 76
     0
330
10777
331
1077E
  0
LAYOUT
  5
EBBF
102
{ACAD_REACTORS
330
EBBD
102
}
330
EBBD
100
AcDbPlotSettings
  1

  2
Ancon 1 A4
  4

  6

 40
0.0
 41
0.0
 42
0.0
 43
0.0
 44
0.0
 45
0.0
 46
0.0
 47
0.0
 48
0.0
 49
0.0
140
0.0
141
0.0
142
1.0
143
1.0
 70
  1712
 72
     0
 73
     0
 74
     0
  7

 75
     0
147
1.0
148
0.0
149
0.0
100
AcDbLayout
  1
Model
 70
     1
 71
     0
 10
0.0
 20
0.0
 11
12.0
 21
9.0
 12
0.0
 22
0.0
 32
0.0
 14
0.0
 24
0.0
 34
0.0
 15
0.0
 25
0.0
 35
0.0
146
0.0
 13
0.0
 23
0.0
 33
0.0
 16
1.0
 26
0.0
 36
0.0
 17
0.0
 27
1.0
 37
0.0
 76
     0
330
DCF2
  0
MLINESTYLE
  5
DCF6
102
{ACAD_REACTORS
330
DCF5
102
}
330
DCF5
100
AcDbMlineStyle
  2
STANDARD
 70
     0
  3

 62
   256
 51
90.0
 52
90.0
 71
     2
 49
0.5
 62
   256
  6
BYLAYER
 49
-0.5
 62
   256
  6
BYLAYER
  0
ACDBPLACEHOLDER
  5
EBBC
102
{ACAD_REACTORS
330
EBBB
102
}
330
EBBB
  0
XRECORD
  5
15965
102
{ACAD_REACTORS
330
1595B
102
}
330
1595B
100
AcDbXrecord
280
     1
 90
        0
  0
XRECORD
  5
15969
102
{ACAD_REACTORS
330
1595B
102
}
330
1595B
100
AcDbXrecord
280
     1
1000
DSTYLE
1002
{
1070
   179
 70
     2
1070
   279
 70
     2
1002
}
  0
XRECORD
  5
15966
102
{ACAD_REACTORS
330
1595B
102
}
330
1595B
100
AcDbXrecord
280
     1
  1
{B88EE4EA-09A3-11D6-AAD2-00C04F189418}
  0
XRECORD
  5
1595E
102
{ACAD_REACTORS
330
1595B
102
}
330
1595B
100
AcDbXrecord
280
     1
  1

  0
XRECORD
  5
15964
102
{ACAD_REACTORS
330
1595B
102
}
330
1595B
100
AcDbXrecord
280
     1
 90
        0
  0
XRECORD
  5
15960
102
{ACAD_REACTORS
330
1595B
102
}
330
1595B
100
AcDbXrecord
280
     1
340
EBBD
  0
XRECORD
  5
15963
102
{ACAD_REACTORS
330
1595B
102
}
330
1595B
100
AcDbXrecord
280
     1
 90
    10781
  0
XRECORD
  5
15961
102
{ACAD_REACTORS
330
1595B
102
}
330
1595B
100
AcDbXrecord
280
     1
340
EBBE
  0
XRECORD
  5
15962
102
{ACAD_REACTORS
330
1595B
102
}
330
1595B
100
AcDbXrecord
280
     1
340
EBBB
  0
XRECORD
  5
15968
102
{ACAD_REACTORS
330
1595B
102
}
330
1595B
100
AcDbXrecord
280
     1
 40
0.0
  0
XRECORD
  5
1596C
102
{ACAD_REACTORS
330
1595B
102
}
330
1595B
100
AcDbXrecord
280
     1
340
0
  0
XRECORD
  5
15972
102
{ACAD_REACTORS
330
1595B
102
}
330
1595B
100
AcDbXrecord
280
     1
 10
0.0
 20
0.0
 30
0.0
  0
XRECORD
  5
1596E
102
{ACAD_REACTORS
330
1595B
102
}
330
1595B
100
AcDbXrecord
280
     1
 10
0.0
 20
0.0
 30
0.0
  0
XRECORD
  5
15971
102
{ACAD_REACTORS
330
1595B
102
}
330
1595B
100
AcDbXrecord
280
     1
 10
0.0
 20
0.0
 30
0.0
  0
XRECORD
  5
1596F
102
{ACAD_REACTORS
330
1595B
102
}
330
1595B
100
AcDbXrecord
280
     1
 10
0.0
 20
0.0
 30
0.0
  0
XRECORD
  5
15970
102
{ACAD_REACTORS
330
1595B
102
}
330
1595B
100
AcDbXrecord
280
     1
 10
0.0
 20
0.0
 30
0.0
  0
XRECORD
  5
1596D
102
{ACAD_REACTORS
330
1595B
102
}
330
1595B
100
AcDbXrecord
280
     1
 10
0.0
 20
0.0
 30
0.0
  0
XRECORD
  5
1596A
102
{ACAD_REACTORS
330
1595B
102
}
330
1595B
100
AcDbXrecord
280
     1
340
0
  0
XRECORD
  5
1596B
102
{ACAD_REACTORS
330
1595B
102
}
330
1595B
100
AcDbXrecord
280
     1
 70
     0
  0
XRECORD
  5
1595F
102
{ACAD_REACTORS
330
1595B
102
}
330
1595B
100
AcDbXrecord
280
     1
  1

  0
XRECORD
  5
1595C
102
{ACAD_REACTORS
330
1595B
102
}
330
1595B
100
AcDbXrecord
280
     1
 90
        1
  0
XRECORD
  5
1595D
102
{ACAD_REACTORS
330
1595B
102
}
330
1595B
100
AcDbXrecord
280
     1
 90
       70
  0
XRECORD
  5
15975
102
{ACAD_REACTORS
330
1595B
102
}
330
1595B
100
AcDbXrecord
280
     1
340
0
  0
XRECORD
  5
1597B
102
{ACAD_REACTORS
330
1595B
102
}
330
1595B
100
AcDbXrecord
280
     1
 10
0.0
 20
0.0
 30
0.0
  0
XRECORD
  5
15977
102
{ACAD_REACTORS
330
1595B
102
}
330
1595B
100
AcDbXrecord
280
     1
 10
0.0
 20
0.0
 30
0.0
  0
XRECORD
  5
1597A
102
{ACAD_REACTORS
330
1595B
102
}
330
1595B
100
AcDbXrecord
280
     1
 10
0.0
 20
0.0
 30
0.0
  0
XRECORD
  5
15978
102
{ACAD_REACTORS
330
1595B
102
}
330
1595B
100
AcDbXrecord
280
     1
 10
0.0
 20
0.0
 30
0.0
  0
XRECORD
  5
15979
102
{ACAD_REACTORS
330
1595B
102
}
330
1595B
100
AcDbXrecord
280
     1
 10
0.0
 20
0.0
 30
0.0
  0
XRECORD
  5
15976
102
{ACAD_REACTORS
330
1595B
102
}
330
1595B
100
AcDbXrecord
280
     1
 10
0.0
 20
0.0
 30
0.0
  0
XRECORD
  5
15973
102
{ACAD_REACTORS
330
1595B
102
}
330
1595B
100
AcDbXrecord
280
     1
340
0
  0
XRECORD
  5
15974
102
{ACAD_REACTORS
330
1595B
102
}
330
1595B
100
AcDbXrecord
280
     1
 70
     0
  0
XRECORD
  5
15967
102
{ACAD_REACTORS
330
1595B
102
}
330
1595B
100
AcDbXrecord
280
     1
  1
{3D04F45A-CC2E-4BE7-8B7D-C211C8C4BEAA}
  0
DICTIONARYVAR
  5
DD3B
102
{ACAD_REACTORS
330
DD3A
102
}
330
DD3A
100
DictionaryVariables
280
     0
  1
0
  0
DICTIONARYVAR
  5
EC17
102
{ACAD_REACTORS
330
DD3A
102
}
330
DD3A
100
DictionaryVariables
280
     0
  1
1
  0
DICTIONARYVAR
  5
E79F
102
{ACAD_REACTORS
330
DD3A
102
}
330
DD3A
100
DictionaryVariables
280
     0
  1
96
  0
ENDSEC
  0
EOF
