  0
SECTION
  2
HEADER
  9
$ACADVER
  1
AC1014
  9
$ACADMAINTVER
 70
     0
  9
$DWGCODEPAGE
  3
ANSI_1252
  9
$INSBASE
 10
-201.382769
 20
66.844877
 30
0.0
  9
$EXTMIN
 10
-332.902717
 20
13.214145
 30
0.0
  9
$EXTMAX
 10
-101.474146
 20
80.943809
 30
0.0
  9
$LIMMIN
 10
0.0
 20
0.0
  9
$LIMMAX
 10
420.0
 20
297.0
  9
$ORTHOMODE
 70
     1
  9
$REGENMODE
 70
     1
  9
$FILLMODE
 70
     1
  9
$QTEXTMODE
 70
     0
  9
$MIRRTEXT
 70
     1
  9
$DRAGMODE
 70
     2
  9
$LTSCALE
 40
1.0
  9
$OSMODE
 70
     1
  9
$ATTMODE
 70
     1
  9
$TEXTSIZE
 40
3.0
  9
$TRACEWID
 40
10.0
  9
$TEXTSTYLE
  7
STANDARD
  9
$CLAYER
  8
ANCON-CHANNEL
  9
$CELTYPE
  6
BYLAYER
  9
$CECOLOR
 62
   256
  9
$CELTSCALE
 40
1.0
  9
$DELOBJ
 70
     1
  9
$DISPSILH
 70
     0
  9
$DIMSCALE
 40
1.0
  9
$DIMASZ
 40
3.0
  9
$DIMEXO
 40
2.5
  9
$DIMDLI
 40
10.0
  9
$DIMRND
 40
0.0
  9
$DIMDLE
 40
1.25
  9
$DIMEXE
 40
2.5
  9
$DIMTP
 40
0.0
  9
$DIMTM
 40
0.0
  9
$DIMTXT
 40
3.0
  9
$DIMCEN
 40
-3.0
  9
$DIMTSZ
 40
0.0
  9
$DIMTOL
 70
     0
  9
$DIMLIM
 70
     0
  9
$DIMTIH
 70
     0
  9
$DIMTOH
 70
     0
  9
$DIMSE1
 70
     0
  9
$DIMSE2
 70
     0
  9
$DIMTAD
 70
     0
  9
$DIMZIN
 70
     0
  9
$DIMBLK
  1

  9
$DIMASO
 70
     1
  9
$DIMSHO
 70
     0
  9
$DIMPOST
  1

  9
$DIMAPOST
  1

  9
$DIMALT
 70
     0
  9
$DIMALTD
 70
     2
  9
$DIMALTF
 40
0.039
  9
$DIMLFAC
 40
1.0
  9
$DIMTOFL
 70
     0
  9
$DIMTVP
 40
1.5
  9
$DIMTIX
 70
     0
  9
$DIMSOXD
 70
     0
  9
$DIMSAH
 70
     0
  9
$DIMBLK1
  1

  9
$DIMBLK2
  1

  9
$DIMSTYLE
  2
STANDARD
  9
$DIMCLRD
 70
     0
  9
$DIMCLRE
 70
     0
  9
$DIMCLRT
 70
     0
  9
$DIMTFAC
 40
0.75
  9
$DIMGAP
 40
1.5
  9
$DIMJUST
 70
     0
  9
$DIMSD1
 70
     0
  9
$DIMSD2
 70
     0
  9
$DIMTOLJ
 70
     1
  9
$DIMTZIN
 70
     0
  9
$DIMALTZ
 70
     0
  9
$DIMALTTZ
 70
     0
  9
$DIMFIT
 70
     5
  9
$DIMUPT
 70
     0
  9
$DIMUNIT
 70
     2
  9
$DIMDEC
 70
     2
  9
$DIMTDEC
 70
     2
  9
$DIMALTU
 70
     2
  9
$DIMALTTD
 70
     2
  9
$DIMTXSTY
  7
STANDARD
  9
$DIMAUNIT
 70
     0
  9
$LUNITS
 70
     2
  9
$LUPREC
 70
     2
  9
$SKETCHINC
 40
1.0
  9
$FILLETRAD
 40
2.0
  9
$AUNITS
 70
     0
  9
$AUPREC
 70
     4
  9
$MENU
  1
C:\ACADWIN\SUPPORT\ACAD
  9
$ELEVATION
 40
0.0
  9
$PELEVATION
 40
0.0
  9
$THICKNESS
 40
0.0
  9
$LIMCHECK
 70
     0
  9
$BLIPMODE
 70
     0
  9
$CHAMFERA
 40
0.0
  9
$CHAMFERB
 40
0.0
  9
$CHAMFERC
 40
0.0
  9
$CHAMFERD
 40
0.0
  9
$SKPOLY
 70
     0
  9
$TDCREATE
 40
2450403.663950579
  9
$TDUPDATE
 40
2451548.449802199
  9
$TDINDWG
 40
0.0998826389
  9
$TDUSRTIMER
 40
0.0998826389
  9
$USRTIMER
 70
     1
  9
$ANGBASE
 50
0.0
  9
$ANGDIR
 70
     0
  9
$PDMODE
 70
     0
  9
$PDSIZE
 40
0.0
  9
$PLINEWID
 40
0.0
  9
$COORDS
 70
     1
  9
$SPLFRAME
 70
     0
  9
$SPLINETYPE
 70
     6
  9
$SPLINESEGS
 70
     8
  9
$ATTDIA
 70
     0
  9
$ATTREQ
 70
     1
  9
$HANDLING
 70
     1
  9
$HANDSEED
  5
70
  9
$SURFTAB1
 70
    18
  9
$SURFTAB2
 70
    18
  9
$SURFTYPE
 70
     6
  9
$SURFU
 70
    18
  9
$SURFV
 70
    18
  9
$UCSNAME
  2

  9
$UCSORG
 10
0.0
 20
0.0
 30
0.0
  9
$UCSXDIR
 10
1.0
 20
0.0
 30
0.0
  9
$UCSYDIR
 10
0.0
 20
1.0
 30
0.0
  9
$PUCSNAME
  2

  9
$PUCSORG
 10
0.0
 20
0.0
 30
0.0
  9
$PUCSXDIR
 10
1.0
 20
0.0
 30
0.0
  9
$PUCSYDIR
 10
0.0
 20
1.0
 30
0.0
  9
$USERI1
 70
     0
  9
$USERI2
 70
     0
  9
$USERI3
 70
     0
  9
$USERI4
 70
     0
  9
$USERI5
 70
     0
  9
$USERR1
 40
0.0
  9
$USERR2
 40
0.0
  9
$USERR3
 40
0.0
  9
$USERR4
 40
0.0
  9
$USERR5
 40
0.0
  9
$WORLDVIEW
 70
     1
  9
$SHADEDGE
 70
     3
  9
$SHADEDIF
 70
    70
  9
$TILEMODE
 70
     1
  9
$MAXACTVP
 70
    16
  9
$PINSBASE
 10
0.0
 20
0.0
 30
0.0
  9
$PLIMCHECK
 70
     0
  9
$PEXTMIN
 10
1.000000E+20
 20
1.000000E+20
 30
1.000000E+20
  9
$PEXTMAX
 10
-1.000000E+20
 20
-1.000000E+20
 30
-1.000000E+20
  9
$PLIMMIN
 10
0.0
 20
0.0
  9
$PLIMMAX
 10
420.0
 20
297.0
  9
$UNITMODE
 70
     0
  9
$VISRETAIN
 70
     0
  9
$PLINEGEN
 70
     0
  9
$PSLTSCALE
 70
     1
  9
$TREEDEPTH
 70
  3020
  9
$PICKSTYLE
 70
     1
  9
$CMLSTYLE
  2
STANDARD
  9
$CMLJUST
 70
     0
  9
$CMLSCALE
 40
1.0
  9
$PROXYGRAPHICS
 70
     1
  9
$MEASUREMENT
 70
     0
  0
ENDSEC
  0
SECTION
  2
CLASSES
  0
CLASS
  1
DICTIONARYVAR
  2
AcDbDictionaryVar
  3
"AutoCAD"
 90
        0
280
     0
281
     0
  0
CLASS
  1
LWPOLYLINE
  2
AcDbPolyline
  3
"AutoCAD"
 90
        0
280
     0
281
     1
  0
ENDSEC
  0
SECTION
  2
TABLES
  0
TABLE
  2
VPORT
  5
12
100
AcDbSymbolTable
 70
     1
  0
VPORT
  5
13
100
AcDbSymbolTableRecord
100
AcDbViewportTableRecord
  2
*ACTIVE
 70
     0
 10
0.0
 20
0.0
 11
1.0
 21
1.0
 12
-197.354922
 22
43.76049
 13
0.0
 23
0.0
 14
5.0
 24
5.0
 15
10.0
 25
10.0
 16
0.0
 26
0.0
 36
1.0
 17
0.0
 27
0.0
 37
0.0
 40
270.181355
 41
1.465261
 42
50.0
 43
0.0
 44
0.0
 50
0.0
 51
0.0
 71
     0
 72
 20000
 73
     1
 74
     1
 75
     0
 76
     0
 77
     0
 78
     0
  0
ENDTAB
  0
TABLE
  2
LTYPE
  5
D
100
AcDbSymbolTable
 70
     1
  0
LTYPE
  5
E
100
AcDbSymbolTableRecord
100
AcDbLinetypeTableRecord
  2
BYBLOCK
 70
     0
  3

 72
    65
 73
     0
 40
0.0
  0
LTYPE
  5
F
100
AcDbSymbolTableRecord
100
AcDbLinetypeTableRecord
  2
BYLAYER
 70
     0
  3

 72
    65
 73
     0
 40
0.0
  0
LTYPE
  5
5
100
AcDbSymbolTableRecord
100
AcDbLinetypeTableRecord
  2
CONTINUOUS
 70
     0
  3
Solid line
 72
    65
 73
     0
 40
0.0
  0
ENDTAB
  0
TABLE
  2
LAYER
  5
A
100
AcDbSymbolTable
 70
     3
  0
LAYER
  5
4
100
AcDbSymbolTableRecord
100
AcDbLayerTableRecord
  2
0
 70
     0
 62
     7
  6
CONTINUOUS
  0
LAYER
  5
1B
100
AcDbSymbolTableRecord
100
AcDbLayerTableRecord
  2
ANCON-CHANNEL
 70
     0
 62
     1
  6
CONTINUOUS
  0
LAYER
  5
69
100
AcDbSymbolTableRecord
100
AcDbLayerTableRecord
  2
ANCON-TEXT
 70
     0
 62
     6
  6
CONTINUOUS
  0
ENDTAB
  0
TABLE
  2
STYLE
  5
B
100
AcDbSymbolTable
 70
     2
  0
STYLE
  5
C
100
AcDbSymbolTableRecord
100
AcDbTextStyleTableRecord
  2
STANDARD
 70
     0
 40
0.0
 41
1.0
 50
0.0
 71
     0
 42
3.0
  3
txt.shx
  4

  0
STYLE
  5
6A
100
AcDbSymbolTableRecord
100
AcDbTextStyleTableRecord
  2
ROMANS
 70
     0
 40
9.0
 41
1.0
 50
0.0
 71
     0
 42
9.0
  3
romans
  4

  0
ENDTAB
  0
TABLE
  2
VIEW
  5
10
100
AcDbSymbolTable
 70
     0
  0
ENDTAB
  0
TABLE
  2
UCS
  5
11
100
AcDbSymbolTable
 70
     0
  0
ENDTAB
  0
TABLE
  2
APPID
  5
14
100
AcDbSymbolTable
 70
     1
  0
APPID
  5
15
100
AcDbSymbolTableRecord
100
AcDbRegAppTableRecord
  2
ACAD
 70
     0
  0
ENDTAB
  0
TABLE
  2
DIMSTYLE
  5
16
100
AcDbSymbolTable
 70
     1
  0
DIMSTYLE
105
1D
100
AcDbSymbolTableRecord
100
AcDbDimStyleTableRecord
  2
STANDARD
 70
     0
  3

  4

  5

  6

  7

 40
1.0
 41
0.18
 42
0.0625
 43
0.38
 44
0.18
 45
0.0
 46
0.0
 47
0.0
 48
0.0
140
0.18
141
0.09
142
0.0
143
25.4
144
1.0
145
0.0
146
1.0
147
0.09
 71
     0
 72
     0
 73
     1
 74
     1
 75
     0
 76
     0
 77
     0
 78
     0
170
     0
171
     2
172
     0
173
     0
174
     0
175
     0
176
     0
177
     0
178
     0
270
     2
271
     4
272
     4
273
     2
274
     2
340
C
275
     0
280
     0
281
     0
282
     0
283
     1
284
     0
285
     0
286
     0
287
     3
288
     0
  0
ENDTAB
  0
TABLE
  2
BLOCK_RECORD
  5
1
100
AcDbSymbolTable
 70
     0
  0
BLOCK_RECORD
  5
2
100
AcDbSymbolTableRecord
100
AcDbBlockTableRecord
  2
*MODEL_SPACE
  0
BLOCK_RECORD
  5
7
100
AcDbSymbolTableRecord
100
AcDbBlockTableRecord
  2
*PAPER_SPACE
  0
ENDTAB
  0
ENDSEC
  0
SECTION
  2
BLOCKS
  0
BLOCK
  5
3
100
AcDbEntity
  8
0
100
AcDbBlockBegin
  2
*MODEL_SPACE
 70
     0
 10
0.0
 20
0.0
 30
0.0
  3
*MODEL_SPACE
  1

  0
ENDBLK
  5
6
100
AcDbEntity
  8
0
100
AcDbBlockEnd
  0
BLOCK
  5
8
100
AcDbEntity
 67
     1
  8
0
100
AcDbBlockBegin
  2
*PAPER_SPACE
 70
     0
 10
0.0
 20
0.0
 30
0.0
  3
*PAPER_SPACE
  1

  0
ENDBLK
  5
9
100
AcDbEntity
 67
     1
  8
0
100
AcDbBlockEnd
  0
ENDSEC
  0
SECTION
  2
ENTITIES
  0
LINE
  5
1E
100
AcDbEntity
  8
ANCON-CHANNEL
100
AcDbLine
 10
-220.382769
 20
61.338095
 30
0.0
 11
-284.882769
 21
61.338095
 31
0.0
  0
LINE
  5
1F
100
AcDbEntity
  8
ANCON-CHANNEL
100
AcDbLine
 10
-220.382769
 20
72.851659
 30
0.0
 11
-284.882769
 21
72.851659
 31
0.0
  0
LINE
  5
20
100
AcDbEntity
  8
ANCON-CHANNEL
100
AcDbLine
 10
-284.882769
 20
61.338095
 30
0.0
 11
-284.882769
 21
72.851659
 31
0.0
  0
LINE
  5
21
100
AcDbEntity
  8
ANCON-CHANNEL
100
AcDbLine
 10
-251.668663
 20
67.177089
 30
0.0
 11
-251.668663
 21
68.905785
 31
0.0
  0
LINE
  5
22
100
AcDbEntity
  8
ANCON-CHANNEL
100
AcDbLine
 10
-250.668663
 20
63.953303
 30
0.0
 11
-250.668663
 21
67.784468
 31
0.0
  0
LINE
  5
23
100
AcDbEntity
  8
ANCON-CHANNEL
100
AcDbLine
 10
-261.714056
 20
67.177089
 30
0.0
 11
-261.714056
 21
68.905785
 31
0.0
  0
LINE
  5
24
100
AcDbEntity
  8
ANCON-CHANNEL
100
AcDbLine
 10
-259.714056
 20
64.654127
 30
0.0
 11
-259.714056
 21
67.784468
 31
0.0
  0
LINE
  5
25
100
AcDbEntity
  8
ANCON-CHANNEL
100
AcDbLine
 10
-260.714056
 20
63.953303
 30
0.0
 11
-260.714056
 21
67.784468
 31
0.0
  0
LINE
  5
26
100
AcDbEntity
  8
ANCON-CHANNEL
100
AcDbLine
 10
-271.75945
 20
67.177089
 30
0.0
 11
-271.75945
 21
68.905785
 31
0.0
  0
LINE
  5
27
100
AcDbEntity
  8
ANCON-CHANNEL
100
AcDbLine
 10
-269.75945
 20
64.654127
 30
0.0
 11
-269.75945
 21
67.784468
 31
0.0
  0
LINE
  5
28
100
AcDbEntity
  8
ANCON-CHANNEL
100
AcDbLine
 10
-270.75945
 20
63.953303
 30
0.0
 11
-270.75945
 21
67.784468
 31
0.0
  0
LINE
  5
29
100
AcDbEntity
  8
ANCON-CHANNEL
100
AcDbLine
 10
-269.75945
 20
61.338095
 30
0.0
 11
-269.75945
 21
63.252481
 31
0.0
  0
LINE
  5
2A
100
AcDbEntity
  8
ANCON-CHANNEL
100
AcDbLine
 10
-270.75945
 20
61.338095
 30
0.0
 11
-270.75945
 21
63.299203
 31
0.0
  0
LINE
  5
2B
100
AcDbEntity
  8
ANCON-CHANNEL
100
AcDbLine
 10
-271.75945
 20
64.373798
 30
0.0
 11
-271.75945
 21
66.569709
 31
0.0
  0
LINE
  5
2C
100
AcDbEntity
  8
ANCON-CHANNEL
100
AcDbLine
 10
-250.668663
 20
61.338095
 30
0.0
 11
-250.668663
 21
63.299203
 31
0.0
  0
LINE
  5
2D
100
AcDbEntity
  8
ANCON-CHANNEL
100
AcDbLine
 10
-260.714056
 20
61.338095
 30
0.0
 11
-260.714056
 21
63.299203
 31
0.0
  0
LINE
  5
2E
100
AcDbEntity
  8
ANCON-CHANNEL
100
AcDbLine
 10
-259.714056
 20
61.338095
 30
0.0
 11
-259.714056
 21
63.252481
 31
0.0
  0
LINE
  5
2F
100
AcDbEntity
  8
ANCON-CHANNEL
100
AcDbLine
 10
-261.714056
 20
64.373798
 30
0.0
 11
-261.714056
 21
66.569709
 31
0.0
  0
LINE
  5
30
100
AcDbEntity
  8
ANCON-CHANNEL
100
AcDbLine
 10
-251.668663
 20
64.373798
 30
0.0
 11
-251.668663
 21
66.569709
 31
0.0
  0
LINE
  5
31
100
AcDbEntity
  8
ANCON-CHANNEL
100
AcDbLine
 10
-271.75945
 20
69.559886
 30
0.0
 11
-271.75945
 21
72.851659
 31
0.0
  0
LINE
  5
32
100
AcDbEntity
  8
ANCON-CHANNEL
100
AcDbLine
 10
-270.75945
 20
68.251683
 30
0.0
 11
-270.75945
 21
70.400873
 31
0.0
  0
LINE
  5
33
100
AcDbEntity
  8
ANCON-CHANNEL
100
AcDbLine
 10
-269.75945
 20
68.578734
 30
0.0
 11
-269.75945
 21
70.587759
 31
0.0
  0
LINE
  5
34
100
AcDbEntity
  8
ANCON-CHANNEL
100
AcDbLine
 10
-251.668663
 20
69.559886
 30
0.0
 11
-251.668663
 21
73.101696
 31
0.0
  0
LINE
  5
35
100
AcDbEntity
  8
ANCON-CHANNEL
100
AcDbLine
 10
-261.714056
 20
69.559886
 30
0.0
 11
-261.714056
 21
73.101696
 31
0.0
  0
LINE
  5
36
100
AcDbEntity
  8
ANCON-CHANNEL
100
AcDbLine
 10
-259.714056
 20
68.578734
 30
0.0
 11
-259.714056
 21
70.587759
 31
0.0
  0
LINE
  5
37
100
AcDbEntity
  8
ANCON-CHANNEL
100
AcDbLine
 10
-260.714056
 20
68.251683
 30
0.0
 11
-260.714056
 21
70.400873
 31
0.0
  0
LINE
  5
38
100
AcDbEntity
  8
ANCON-CHANNEL
100
AcDbLine
 10
-250.668663
 20
68.251683
 30
0.0
 11
-250.668663
 21
70.400873
 31
0.0
  0
LINE
  5
39
100
AcDbEntity
  8
ANCON-CHANNEL
100
AcDbLine
 10
-229.577875
 20
64.654127
 30
0.0
 11
-229.577875
 21
67.784468
 31
0.0
  0
LINE
  5
3A
100
AcDbEntity
  8
ANCON-CHANNEL
100
AcDbLine
 10
-230.577875
 20
63.953303
 30
0.0
 11
-230.577875
 21
67.784468
 31
0.0
  0
LINE
  5
3B
100
AcDbEntity
  8
ANCON-CHANNEL
100
AcDbLine
 10
-231.577875
 20
67.177089
 30
0.0
 11
-231.577875
 21
68.905785
 31
0.0
  0
LINE
  5
3C
100
AcDbEntity
  8
ANCON-CHANNEL
100
AcDbLine
 10
-241.623269
 20
67.177089
 30
0.0
 11
-241.623269
 21
68.905785
 31
0.0
  0
LINE
  5
3D
100
AcDbEntity
  8
ANCON-CHANNEL
100
AcDbLine
 10
-239.623269
 20
64.654127
 30
0.0
 11
-239.623269
 21
67.784468
 31
0.0
  0
LINE
  5
3E
100
AcDbEntity
  8
ANCON-CHANNEL
100
AcDbLine
 10
-240.623269
 20
63.953303
 30
0.0
 11
-240.623269
 21
67.784468
 31
0.0
  0
LINE
  5
3F
100
AcDbEntity
  8
ANCON-CHANNEL
100
AcDbLine
 10
-249.668663
 20
64.654127
 30
0.0
 11
-249.668663
 21
67.784468
 31
0.0
  0
LINE
  5
40
100
AcDbEntity
  8
ANCON-CHANNEL
100
AcDbLine
 10
-240.623269
 20
61.338095
 30
0.0
 11
-240.623269
 21
63.299203
 31
0.0
  0
LINE
  5
41
100
AcDbEntity
  8
ANCON-CHANNEL
100
AcDbLine
 10
-239.623269
 20
61.338095
 30
0.0
 11
-239.623269
 21
63.252481
 31
0.0
  0
LINE
  5
42
100
AcDbEntity
  8
ANCON-CHANNEL
100
AcDbLine
 10
-249.668663
 20
61.338095
 30
0.0
 11
-249.668663
 21
63.252481
 31
0.0
  0
LINE
  5
43
100
AcDbEntity
  8
ANCON-CHANNEL
100
AcDbLine
 10
-241.623269
 20
64.373798
 30
0.0
 11
-241.623269
 21
66.569709
 31
0.0
  0
LINE
  5
44
100
AcDbEntity
  8
ANCON-CHANNEL
100
AcDbLine
 10
-230.577875
 20
61.338095
 30
0.0
 11
-230.577875
 21
63.299203
 31
0.0
  0
LINE
  5
45
100
AcDbEntity
  8
ANCON-CHANNEL
100
AcDbLine
 10
-229.577875
 20
61.338095
 30
0.0
 11
-229.577875
 21
63.252481
 31
0.0
  0
LINE
  5
46
100
AcDbEntity
  8
ANCON-CHANNEL
100
AcDbLine
 10
-231.577875
 20
64.373798
 30
0.0
 11
-231.577875
 21
66.569709
 31
0.0
  0
LINE
  5
47
100
AcDbEntity
  8
ANCON-CHANNEL
100
AcDbLine
 10
-249.668663
 20
68.578734
 30
0.0
 11
-249.668663
 21
70.587759
 31
0.0
  0
LINE
  5
48
100
AcDbEntity
  8
ANCON-CHANNEL
100
AcDbLine
 10
-241.623269
 20
69.559886
 30
0.0
 11
-241.623269
 21
72.851659
 31
0.0
  0
LINE
  5
49
100
AcDbEntity
  8
ANCON-CHANNEL
100
AcDbLine
 10
-240.623269
 20
68.251683
 30
0.0
 11
-240.623269
 21
70.400873
 31
0.0
  0
LINE
  5
4A
100
AcDbEntity
  8
ANCON-CHANNEL
100
AcDbLine
 10
-239.623269
 20
68.578734
 30
0.0
 11
-239.623269
 21
70.587759
 31
0.0
  0
LINE
  5
4B
100
AcDbEntity
  8
ANCON-CHANNEL
100
AcDbLine
 10
-231.577875
 20
69.559886
 30
0.0
 11
-231.577875
 21
73.101696
 31
0.0
  0
LINE
  5
4C
100
AcDbEntity
  8
ANCON-CHANNEL
100
AcDbLine
 10
-230.577875
 20
68.251683
 30
0.0
 11
-230.577875
 21
70.400873
 31
0.0
  0
LINE
  5
4D
100
AcDbEntity
  8
ANCON-CHANNEL
100
AcDbLine
 10
-229.577875
 20
68.578734
 30
0.0
 11
-229.577875
 21
70.587759
 31
0.0
  0
LINE
  5
4E
100
AcDbEntity
  8
ANCON-CHANNEL
100
AcDbLine
 10
-220.382769
 20
67.094877
 30
0.0
 11
-220.382769
 21
72.851659
 31
0.0
  0
LINE
  5
4F
100
AcDbEntity
  8
ANCON-CHANNEL
100
AcDbLine
 10
-214.882769
 20
61.338095
 30
0.0
 11
-214.882769
 21
72.851659
 31
0.0
  0
LINE
  5
50
100
AcDbEntity
  8
ANCON-CHANNEL
100
AcDbLine
 10
-217.882769
 20
61.338095
 30
0.0
 11
-217.882769
 21
72.851659
 31
0.0
  0
LINE
  5
51
100
AcDbEntity
  8
ANCON-CHANNEL
100
AcDbLine
 10
-220.382769
 20
67.094877
 30
0.0
 11
-220.382769
 21
61.338095
 31
0.0
  0
ARC
  5
52
100
AcDbEntity
  8
ANCON-CHANNEL
100
AcDbCircle
 10
-217.882769
 20
61.338095
 30
0.0
 40
2.5
100
AcDbArc
 50
180.0
 51
249.775141
  0
LINE
  5
53
100
AcDbEntity
  8
ANCON-CHANNEL
100
AcDbLine
 10
-217.882769
 20
61.338095
 30
0.0
 11
-214.882769
 21
61.338095
 31
0.0
  0
ARC
  5
54
100
AcDbEntity
  8
ANCON-CHANNEL
100
AcDbCircle
 10
-217.882769
 20
72.851659
 30
0.0
 40
2.5
100
AcDbArc
 50
110.224859
 51
180.0
  0
LINE
  5
55
100
AcDbEntity
  8
ANCON-CHANNEL
100
AcDbLine
 10
-217.882769
 20
72.851659
 30
0.0
 11
-214.882769
 21
72.851659
 31
0.0
  0
ARC
  5
56
100
AcDbEntity
  8
ANCON-CHANNEL
100
AcDbCircle
 10
-205.882769
 20
75.141295
 30
0.0
 40
4.5
100
AcDbArc
 50
0.0
 51
110.224859
  0
LINE
  5
57
100
AcDbEntity
  8
ANCON-CHANNEL
100
AcDbLine
 10
-218.747032
 20
75.197517
 30
0.0
 11
-207.438443
 21
79.363839
 31
0.0
  0
ARC
  5
58
100
AcDbEntity
  8
ANCON-CHANNEL
100
AcDbCircle
 10
-205.882769
 20
75.141295
 30
0.0
 40
2.0
100
AcDbArc
 50
0.0
 51
110.224859
  0
LINE
  5
59
100
AcDbEntity
  8
ANCON-CHANNEL
100
AcDbLine
 10
-217.882769
 20
72.851659
 30
0.0
 11
-206.57418
 21
77.017981
 31
0.0
  0
LINE
  5
5A
100
AcDbEntity
  8
ANCON-CHANNEL
100
AcDbLine
 10
-203.882769
 20
74.094877
 30
0.0
 11
-201.382769
 21
74.094877
 31
0.0
  0
LINE
  5
5B
100
AcDbEntity
  8
ANCON-CHANNEL
100
AcDbLine
 10
-201.382769
 20
74.094877
 30
0.0
 11
-201.382769
 21
75.141295
 31
0.0
  0
LINE
  5
5C
100
AcDbEntity
  8
ANCON-CHANNEL
100
AcDbLine
 10
-203.882769
 20
74.094877
 30
0.0
 11
-203.882769
 21
75.141295
 31
0.0
  0
LINE
  5
5D
100
AcDbEntity
  8
ANCON-CHANNEL
100
AcDbLine
 10
-201.382769
 20
74.594877
 30
0.0
 11
-201.382769
 21
74.094877
 31
0.0
  0
LINE
  5
5E
100
AcDbEntity
  8
ANCON-CHANNEL
100
AcDbLine
 10
-201.382769
 20
74.094877
 30
0.0
 11
-201.382769
 21
74.594877
 31
0.0
  0
ARC
  5
5F
100
AcDbEntity
  8
ANCON-CHANNEL
100
AcDbCircle
 10
-205.882769
 20
59.048459
 30
0.0
 40
4.5
100
AcDbArc
 50
249.775141
 51
0.0
  0
LINE
  5
60
100
AcDbEntity
  8
ANCON-CHANNEL
100
AcDbLine
 10
-207.438443
 20
54.825915
 30
0.0
 11
-218.747032
 21
58.992237
 31
0.0
  0
ARC
  5
61
100
AcDbEntity
  8
ANCON-CHANNEL
100
AcDbCircle
 10
-205.882769
 20
59.048459
 30
0.0
 40
2.0
100
AcDbArc
 50
249.775141
 51
0.0
  0
LINE
  5
62
100
AcDbEntity
  8
ANCON-CHANNEL
100
AcDbLine
 10
-206.57418
 20
57.171773
 30
0.0
 11
-217.882769
 21
61.338095
 31
0.0
  0
LINE
  5
63
100
AcDbEntity
  8
ANCON-CHANNEL
100
AcDbLine
 10
-203.882769
 20
60.094877
 30
0.0
 11
-201.382769
 21
60.094877
 31
0.0
  0
LINE
  5
64
100
AcDbEntity
  8
ANCON-CHANNEL
100
AcDbLine
 10
-201.382769
 20
60.094877
 30
0.0
 11
-201.382769
 21
59.594877
 31
0.0
  0
LINE
  5
65
100
AcDbEntity
  8
ANCON-CHANNEL
100
AcDbLine
 10
-203.882769
 20
59.048459
 30
0.0
 11
-203.882769
 21
60.094877
 31
0.0
  0
LINE
  5
66
100
AcDbEntity
  8
ANCON-CHANNEL
100
AcDbLine
 10
-201.382769
 20
59.594877
 30
0.0
 11
-201.382769
 21
59.048459
 31
0.0
  0
LINE
  5
67
100
AcDbEntity
  8
ANCON-CHANNEL
100
AcDbLine
 10
-201.382769
 20
59.048459
 30
0.0
 11
-201.382769
 21
60.094877
 31
0.0
  0
TEXT
  5
68
100
AcDbEntity
  8
ANCON-TEXT
100
AcDbText
 10
-333.331289
 20
27.785574
 30
0.0
 40
9.0
  1
ANCON 30/20 CAST-IN CHANNEL
  7
ROMANS
100
AcDbText
  0
TEXT
  5
6B
100
AcDbEntity
  8
ANCON-TEXT
100
AcDbText
 10
-333.331289
 20
13.214145
 30
0.0
 40
9.0
  1
STANDARD EDGE : 75mm
  7
ROMANS
100
AcDbText
  0
ENDSEC
  0
SECTION
  2
OBJECTS
  0
DICTIONARY
  5
1A
100
AcDbDictionary
  3
ACAD_GROUP
350
18
  3
ACAD_MLINESTYLE
350
19
  0
DICTIONARY
  5
18
102
{ACAD_REACTORS
330
1A
102
}
100
AcDbDictionary
  0
DICTIONARY
  5
19
102
{ACAD_REACTORS
330
1A
102
}
100
AcDbDictionary
  3
STANDARD
350
1C
  0
MLINESTYLE
  5
1C
102
{ACAD_REACTORS
330
19
102
}
100
AcDbMlineStyle
  2
STANDARD
 70
     0
  3

 62
   256
 51
90.0
 52
90.0
 71
     2
 49
0.5
 62
   256
  6
BYLAYER
 49
-0.5
 62
   256
  6
BYLAYER
  0
ENDSEC
  0
EOF
