  0
SECTION
  2
HEADER
  9
$ACADVER
  1
AC1015
  9
$ACADMAINTVER
 70
    20
  9
$DWGCODEPAGE
  3
ANSI_1252
  9
$INSBASE
 10
7244.455137541436
 20
-1986.631342318729
 30
0.0
  9
$EXTMIN
 10
7027.322208993159
 20
-2473.25451044092
 30
0.0
  9
$EXTMAX
 10
7643.449412669432
 20
-1900.162566257755
 30
0.0
  9
$LIMMIN
 10
0.0
 20
0.0
  9
$LIMMAX
 10
420.0
 20
297.0
  9
$ORTHOMODE
 70
     1
  9
$REGENMODE
 70
     1
  9
$FILLMODE
 70
     1
  9
$QTEXTMODE
 70
     0
  9
$MIRRTEXT
 70
     1
  9
$LTSCALE
 40
0.25
  9
$ATTMODE
 70
     1
  9
$TEXTSIZE
 40
5.0
  9
$TRACEWID
 40
10.0
  9
$TEXTSTYLE
  7
ROMANS
  9
$CLAYER
  8
ANCON-CONCRETE
  9
$CELTYPE
  6
BYLAYER
  9
$CECOLOR
 62
   256
  9
$CELTSCALE
 40
1.0
  9
$DISPSILH
 70
     0
  9
$DIMSCALE
 40
0.0
  9
$DIMASZ
 40
4.0
  9
$DIMEXO
 40
3.0
  9
$DIMDLI
 40
10.0
  9
$DIMRND
 40
0.0
  9
$DIMDLE
 40
1.25
  9
$DIMEXE
 40
3.0
  9
$DIMTP
 40
0.0
  9
$DIMTM
 40
0.0
  9
$DIMTXT
 40
3.0
  9
$DIMCEN
 40
-3.0
  9
$DIMTSZ
 40
0.0
  9
$DIMTOL
 70
     0
  9
$DIMLIM
 70
     0
  9
$DIMTIH
 70
     0
  9
$DIMTOH
 70
     0
  9
$DIMSE1
 70
     0
  9
$DIMSE2
 70
     0
  9
$DIMTAD
 70
     1
  9
$DIMZIN
 70
    12
  9
$DIMBLK
  1

  9
$DIMASO
 70
     1
  9
$DIMSHO
 70
     0
  9
$DIMPOST
  1

  9
$DIMAPOST
  1

  9
$DIMALT
 70
     0
  9
$DIMALTD
 70
     2
  9
$DIMALTF
 40
0.039
  9
$DIMLFAC
 40
1.0
  9
$DIMTOFL
 70
     0
  9
$DIMTVP
 40
1.5
  9
$DIMTIX
 70
     0
  9
$DIMSOXD
 70
     0
  9
$DIMSAH
 70
     0
  9
$DIMBLK1
  1

  9
$DIMBLK2
  1

  9
$DIMSTYLE
  2
1-2
  9
$DIMCLRD
 70
     0
  9
$DIMCLRE
 70
     0
  9
$DIMCLRT
 70
     0
  9
$DIMTFAC
 40
0.75
  9
$DIMGAP
 40
1.5
  9
$DIMJUST
 70
     0
  9
$DIMSD1
 70
     0
  9
$DIMSD2
 70
     0
  9
$DIMTOLJ
 70
     1
  9
$DIMTZIN
 70
    12
  9
$DIMALTZ
 70
    12
  9
$DIMALTTZ
 70
    12
  9
$DIMUPT
 70
     0
  9
$DIMDEC
 70
     2
  9
$DIMTDEC
 70
     2
  9
$DIMALTU
 70
     2
  9
$DIMALTTD
 70
     2
  9
$DIMTXSTY
  7
ROMANS
  9
$DIMAUNIT
 70
     0
  9
$DIMADEC
 70
     0
  9
$DIMALTRND
 40
0.0
  9
$DIMAZIN
 70
     0
  9
$DIMDSEP
 70
    46
  9
$DIMATFIT
 70
     3
  9
$DIMFRAC
 70
     0
  9
$DIMLDRBLK
  1

  9
$DIMLUNIT
 70
     2
  9
$DIMLWD
 70
    -2
  9
$DIMLWE
 70
    -2
  9
$DIMTMOVE
 70
     2
  9
$LUNITS
 70
     2
  9
$LUPREC
 70
     2
  9
$SKETCHINC
 40
1.0
  9
$FILLETRAD
 40
0.0
  9
$AUNITS
 70
     0
  9
$AUPREC
 70
     4
  9
$MENU
  1
acad
  9
$ELEVATION
 40
0.0
  9
$PELEVATION
 40
0.0
  9
$THICKNESS
 40
0.0
  9
$LIMCHECK
 70
     0
  9
$CHAMFERA
 40
0.0
  9
$CHAMFERB
 40
0.0
  9
$CHAMFERC
 40
0.0
  9
$CHAMFERD
 40
0.0
  9
$SKPOLY
 70
     0
  9
$TDCREATE
 40
2449527.571155093
  9
$TDUCREATE
 40
2449527.529488426
  9
$TDUPDATE
 40
2455086.595514398
  9
$TDUUPDATE
 40
2455086.553847732
  9
$TDINDWG
 40
0.8722833565
  9
$TDUSRTIMER
 40
0.8722833565
  9
$USRTIMER
 70
     1
  9
$ANGBASE
 50
0.0
  9
$ANGDIR
 70
     0
  9
$PDMODE
 70
     0
  9
$PDSIZE
 40
0.0
  9
$PLINEWID
 40
0.0
  9
$SPLFRAME
 70
     0
  9
$SPLINETYPE
 70
     6
  9
$SPLINESEGS
 70
     8
  9
$HANDSEED
  5
17A
  9
$SURFTAB1
 70
    18
  9
$SURFTAB2
 70
    18
  9
$SURFTYPE
 70
     6
  9
$SURFU
 70
    18
  9
$SURFV
 70
    18
  9
$UCSBASE
  2

  9
$UCSNAME
  2

  9
$UCSORG
 10
0.0
 20
0.0
 30
0.0
  9
$UCSXDIR
 10
1.0
 20
0.0
 30
0.0
  9
$UCSYDIR
 10
0.0
 20
1.0
 30
0.0
  9
$UCSORTHOREF
  2

  9
$UCSORTHOVIEW
 70
     0
  9
$UCSORGTOP
 10
0.0
 20
0.0
 30
0.0
  9
$UCSORGBOTTOM
 10
0.0
 20
0.0
 30
0.0
  9
$UCSORGLEFT
 10
0.0
 20
0.0
 30
0.0
  9
$UCSORGRIGHT
 10
0.0
 20
0.0
 30
0.0
  9
$UCSORGFRONT
 10
0.0
 20
0.0
 30
0.0
  9
$UCSORGBACK
 10
0.0
 20
0.0
 30
0.0
  9
$PUCSBASE
  2

  9
$PUCSNAME
  2

  9
$PUCSORG
 10
0.0
 20
0.0
 30
0.0
  9
$PUCSXDIR
 10
1.0
 20
0.0
 30
0.0
  9
$PUCSYDIR
 10
0.0
 20
1.0
 30
0.0
  9
$PUCSORTHOREF
  2

  9
$PUCSORTHOVIEW
 70
     0
  9
$PUCSORGTOP
 10
0.0
 20
0.0
 30
0.0
  9
$PUCSORGBOTTOM
 10
0.0
 20
0.0
 30
0.0
  9
$PUCSORGLEFT
 10
0.0
 20
0.0
 30
0.0
  9
$PUCSORGRIGHT
 10
0.0
 20
0.0
 30
0.0
  9
$PUCSORGFRONT
 10
0.0
 20
0.0
 30
0.0
  9
$PUCSORGBACK
 10
0.0
 20
0.0
 30
0.0
  9
$USERI1
 70
     0
  9
$USERI2
 70
     0
  9
$USERI3
 70
     0
  9
$USERI4
 70
     0
  9
$USERI5
 70
     0
  9
$USERR1
 40
0.0
  9
$USERR2
 40
0.0
  9
$USERR3
 40
0.0
  9
$USERR4
 40
0.0
  9
$USERR5
 40
0.0
  9
$WORLDVIEW
 70
     1
  9
$SHADEDGE
 70
     3
  9
$SHADEDIF
 70
    70
  9
$TILEMODE
 70
     1
  9
$MAXACTVP
 70
    16
  9
$PINSBASE
 10
0.0
 20
0.0
 30
0.0
  9
$PLIMCHECK
 70
     0
  9
$PEXTMIN
 10
1.000000000000000E+20
 20
1.000000000000000E+20
 30
1.000000000000000E+20
  9
$PEXTMAX
 10
-1.000000000000000E+20
 20
-1.000000000000000E+20
 30
-1.000000000000000E+20
  9
$PLIMMIN
 10
0.0
 20
0.0
  9
$PLIMMAX
 10
420.0
 20
297.0
  9
$UNITMODE
 70
     0
  9
$VISRETAIN
 70
     0
  9
$PLINEGEN
 70
     0
  9
$PSLTSCALE
 70
     1
  9
$TREEDEPTH
 70
  3020
  9
$CMLSTYLE
  2
STANDARD
  9
$CMLJUST
 70
     0
  9
$CMLSCALE
 40
1.0
  9
$PROXYGRAPHICS
 70
     1
  9
$MEASUREMENT
 70
     0
  9
$CELWEIGHT
370
    -1
  9
$ENDCAPS
280
     0
  9
$JOINSTYLE
280
     0
  9
$LWDISPLAY
290
     0
  9
$INSUNITS
 70
     0
  9
$HYPERLINKBASE
  1

  9
$STYLESHEET
  1
Ancon pen settings.ctb
  9
$XEDIT
290
     1
  9
$CEPSNTYPE
380
     0
  9
$PSTYLEMODE
290
     1
  9
$FINGERPRINTGUID
  2
{6580C2FA-930E-43D9-9C31-F2E97AD0789E}
  9
$VERSIONGUID
  2
{170D2398-AE7B-41E2-9DA5-214821F3E91F}
  9
$EXTNAMES
290
     1
  9
$PSVPSCALE
 40
0.0
  9
$OLESTARTUP
290
     0
  0
ENDSEC
  0
SECTION
  2
CLASSES
  0
CLASS
  1
DICTIONARYVAR
  2
AcDbDictionaryVar
  3
ObjectDBX Classes
 90
        0
280
     0
281
     0
  0
CLASS
  1
LWPOLYLINE
  2
AcDbPolyline
  3
ObjectDBX Classes
 90
        0
280
     0
281
     1
  0
CLASS
  1
XRECORD
  2
AcDbXrecord
  3
ObjectDBX Classes
 90
        0
280
     0
281
     0
  0
CLASS
  1
ACDBDICTIONARYWDFLT
  2
AcDbDictionaryWithDefault
  3
ObjectDBX Classes
 90
        0
280
     0
281
     0
  0
CLASS
  1
ACDBPLACEHOLDER
  2
AcDbPlaceHolder
  3
ObjectDBX Classes
 90
        0
280
     0
281
     0
  0
CLASS
  1
LAYOUT
  2
AcDbLayout
  3
ObjectDBX Classes
 90
        0
280
     0
281
     0
  0
CLASS
  1
LONG_TRANSACTION
  2
AcDbLongTransaction
  3
ObjectDBX Classes
 90
    32768
280
     0
281
     0
  0
CLASS
  1
LWPOLYLINE
  2
AcDbPolyline
  3
ObjectDBX Classes
 90
        0
280
     0
281
     1
  0
CLASS
  1
HATCH
  2
AcDbHatch
  3
ObjectDBX Classes
 90
    32768
280
     0
281
     1
  0
CLASS
  1
XRECORD
  2
AcDbXrecord
  3
ObjectDBX Classes
 90
        0
280
     0
281
     0
  0
CLASS
  1
TABLESTYLE
  2
AcDbTableStyle
  3
ObjectDBX Classes
 90
     4095
280
     0
281
     0
  0
CLASS
  1
MATERIAL
  2
AcDbMaterial
  3
ObjectDBX Classes
 90
     1153
280
     0
281
     0
  0
CLASS
  1
VISUALSTYLE
  2
AcDbVisualStyle
  3
ObjectDBX Classes
 90
     4095
280
     1
281
     0
  0
CLASS
  1
SCALE
  2
AcDbScale
  3
ObjectDBX Classes
 90
     1153
280
     1
281
     0
  0
CLASS
  1
MLEADERSTYLE
  2
AcDbMLeaderStyle
  3
ACDB_MLEADERSTYLE_CLASS
 90
     4095
280
     1
281
     0
  0
CLASS
  1
PLOTSETTINGS
  2
AcDbPlotSettings
  3
ObjectDBX Classes
 90
    32768
280
     0
281
     0
  0
CLASS
  1
DIMASSOC
  2
AcDbDimAssoc
  3
"AcDbDimAssoc|Product Desc:     AcDim ARX App For Dimension|Company:          Autodesk, Inc.|WEB Address:      www.autodesk.com"
 90
    32768
280
     0
281
     0
  0
CLASS
  1
SORTENTSTABLE
  2
AcDbSortentsTable
  3
ObjectDBX Classes
 90
        0
280
     0
281
     0
  0
CLASS
  1
CELLSTYLEMAP
  2
AcDbCellStyleMap
  3
ObjectDBX Classes
 90
     1152
280
     1
281
     0
  0
CLASS
  1
AEC_REFEDIT_STATUS_TRACKER
  2
AecDbRefEditStatusTracker
  3
AecArchBase50|Product Desc: Autodesk Architectural Desktop 2007 |Company: Autodesk,Inc. |WEB Address: www.autodesk.com
 90
    32897
280
     1
281
     0
  0
CLASS
  1
NPOCOLLECTION
  2
AcDbImpNonPersistentObjectsCollection
  3
ObjectDBX Classes
 90
    33921
280
     1
281
     0
  0
ENDSEC
  0
SECTION
  2
TABLES
  0
TABLE
  2
VPORT
  5
23
102
{ACAD_XDICTIONARY
360
25
102
}
330
0
100
AcDbSymbolTable
 70
     1
  0
VPORT
  5
24
330
23
100
AcDbSymbolTableRecord
100
AcDbViewportTableRecord
  2
*Active
 70
     0
 10
0.0
 20
0.0
 11
1.0
 21
1.0
 12
7466.666553897848
 22
-2165.303806268301
 13
0.0
 23
0.0
 14
5.0
 24
5.0
 15
10.0
 25
10.0
 16
0.0
 26
0.0
 36
1.0
 17
0.0
 27
0.0
 37
0.0
 40
876.13812229241
 41
1.71625344352617
 42
50.0
 43
0.0
 44
0.0
 50
0.0
 51
0.0
 71
     0
 72
   100
 73
     1
 74
     1
 75
     0
 76
     0
 77
     0
 78
     1
281
     0
 65
     1
110
0.0
120
0.0
130
0.0
111
1.0
121
0.0
131
0.0
112
0.0
122
1.0
132
0.0
 79
     0
146
0.0
  0
ENDTAB
  0
TABLE
  2
LTYPE
  5
1E
330
0
100
AcDbSymbolTable
 70
     4
  0
LTYPE
  5
1F
330
1E
100
AcDbSymbolTableRecord
100
AcDbLinetypeTableRecord
  2
BYBLOCK
 70
     0
  3

 72
    65
 73
     0
 40
0.0
  0
LTYPE
  5
20
330
1E
100
AcDbSymbolTableRecord
100
AcDbLinetypeTableRecord
  2
BYLAYER
 70
     0
  3

 72
    65
 73
     0
 40
0.0
  0
LTYPE
  5
D
330
1E
100
AcDbSymbolTableRecord
100
AcDbLinetypeTableRecord
  2
CONTINUOUS
 70
     0
  3
Solid line
 72
    65
 73
     0
 40
0.0
  0
LTYPE
  5
6D
330
1E
100
AcDbSymbolTableRecord
100
AcDbLinetypeTableRecord
  2
DASHED1_02
 70
     0
  3
___  ___  ___  ___  ___  ___  ___  ___  ___  __
 72
    65
 73
     2
 40
18.0
 49
12.0
 74
     0
 49
-6.0
 74
     0
  0
LTYPE
  5
5B
330
1E
100
AcDbSymbolTableRecord
100
AcDbLinetypeTableRecord
  2
CENTER
 70
     0
  3
Center ____ _ ____ _ ____ _ ____ _ ____ _ ____
 72
    65
 73
     4
 40
50.8
 49
31.75
 74
     0
 49
-6.349999999999999
 74
     0
 49
6.349999999999999
 74
     0
 49
-6.349999999999999
 74
     0
  0
ENDTAB
  0
TABLE
  2
LAYER
  5
18
102
{ACAD_XDICTIONARY
360
19
102
}
330
0
100
AcDbSymbolTable
 70
     5
  0
LAYER
  5
7
102
{ACAD_XDICTIONARY
360
8
102
}
330
18
100
AcDbSymbolTableRecord
100
AcDbLayerTableRecord
  2
0
 70
     0
 62
     7
  6
CONTINUOUS
370
    -3
390
A
  0
LAYER
  5
35
102
{ACAD_XDICTIONARY
360
36
102
}
330
18
100
AcDbSymbolTableRecord
100
AcDbLayerTableRecord
  2
ANCON-CONCRETE
 70
     0
 62
     2
  6
CONTINUOUS
370
    -3
390
A
  0
LAYER
  5
C7
102
{ACAD_XDICTIONARY
360
C8
102
}
330
18
100
AcDbSymbolTableRecord
100
AcDbLayerTableRecord
  2
ANCON-TEXT
 70
     0
 62
     6
  6
CONTINUOUS
370
    -3
390
A
  0
LAYER
  5
58
102
{ACAD_XDICTIONARY
360
59
102
}
330
18
100
AcDbSymbolTableRecord
100
AcDbLayerTableRecord
  2
CENTRE
 70
     0
 62
     1
  6
CENTER
370
    -3
390
A
  0
LAYER
  5
3E
330
18
100
AcDbSymbolTableRecord
100
AcDbLayerTableRecord
  2
ANCON-HLD
 70
     0
 62
     3
  6
CONTINUOUS
370
    -3
390
A
1001
AcAecLayerStandard
1000

1000

  0
ENDTAB
  0
TABLE
  2
STYLE
  5
1B
330
0
100
AcDbSymbolTable
 70
     5
  0
STYLE
  5
1C
330
1B
100
AcDbSymbolTableRecord
100
AcDbTextStyleTableRecord
  2
STANDARD
 70
     0
 40
0.0
 41
1.0
 50
0.0
 71
     0
 42
6.0
  3
txt.shx
  4

  0
STYLE
  5
2D
330
1B
100
AcDbSymbolTableRecord
100
AcDbTextStyleTableRecord
  2
ROMANS
 70
     0
 40
0.0
 41
1.0
 50
0.0
 71
     0
 42
5.0
  3
romans
  4

  0
ENDTAB
  0
TABLE
  2
VIEW
  5
21
330
0
100
AcDbSymbolTable
 70
     0
  0
ENDTAB
  0
TABLE
  2
UCS
  5
22
330
0
100
AcDbSymbolTable
 70
     0
  0
ENDTAB
  0
TABLE
  2
APPID
  5
2A
330
0
100
AcDbSymbolTable
 70
     5
  0
APPID
  5
29
330
2A
100
AcDbSymbolTableRecord
100
AcDbRegAppTableRecord
  2
ACAD
 70
     0
  0
APPID
  5
11
330
2A
100
AcDbSymbolTableRecord
100
AcDbRegAppTableRecord
  2
ACAD_PSEXT
 70
     0
  0
APPID
  5
3F
330
2A
100
AcDbSymbolTableRecord
100
AcDbRegAppTableRecord
  2
AcAecLayerStandard
 70
     0
  0
APPID
  5
138
330
2A
100
AcDbSymbolTableRecord
100
AcDbRegAppTableRecord
  2
ACAD_MLEADERVER
 70
     0
  0
APPID
  5
13D
330
2A
100
AcDbSymbolTableRecord
100
AcDbRegAppTableRecord
  2
ACAD_EXEMPT_FROM_CAD_STANDARDS
 70
     0
  0
ENDTAB
  0
TABLE
  2
DIMSTYLE
  5
2B
330
0
100
AcDbSymbolTable
 70
     4
100
AcDbDimStyleTable
 71
     1
340
2C
  0
DIMSTYLE
105
2C
330
2B
100
AcDbSymbolTableRecord
100
AcDbDimStyleTableRecord
  2
1-2
 70
     0
 40
0.0
 41
4.0
 42
3.0
 43
10.0
 44
3.0
 46
1.25
 73
     0
 74
     0
 77
     1
 78
    12
140
3.0
141
-3.0
143
0.039
145
1.5
146
0.75
147
1.5
271
     2
272
     2
279
     2
284
    12
285
    12
286
    12
340
2D
  0
ENDTAB
  0
TABLE
  2
BLOCK_RECORD
  5
1
330
0
100
AcDbSymbolTable
 70
     3
  0
BLOCK_RECORD
  5
2
102
{ACAD_XDICTIONARY
360
3
102
}
330
1
100
AcDbSymbolTableRecord
100
AcDbBlockTableRecord
  2
*MODEL_SPACE
340
F
  0
BLOCK_RECORD
  5
12
102
{ACAD_XDICTIONARY
360
13
102
}
330
1
100
AcDbSymbolTableRecord
100
AcDbBlockTableRecord
  2
*PAPER_SPACE
340
17
  0
ENDTAB
  0
ENDSEC
  0
SECTION
  2
BLOCKS
  0
BLOCK
  5
6
330
2
100
AcDbEntity
  8
0
100
AcDbBlockBegin
  2
*MODEL_SPACE
 70
     0
 10
0.0
 20
0.0
 30
0.0
  3
*MODEL_SPACE
  1

  0
ENDBLK
  5
E
330
2
100
AcDbEntity
  8
0
100
AcDbBlockEnd
  0
BLOCK
  5
15
330
12
100
AcDbEntity
 67
     1
  8
0
100
AcDbBlockBegin
  2
*PAPER_SPACE
 70
     0
 10
0.0
 20
0.0
 30
0.0
  3
*PAPER_SPACE
  1

  0
ENDBLK
  5
16
330
12
100
AcDbEntity
 67
     1
  8
0
100
AcDbBlockEnd
  0
ENDSEC
  0
SECTION
  2
ENTITIES
  0
LINE
  5
3D
330
2
100
AcDbEntity
  8
ANCON-HLD
100
AcDbLine
 10
7059.455137541435
 20
-2257.109033274492
 30
0.0
 11
7059.455137541435
 21
-2227.109033274492
 31
0.0
  0
LINE
  5
40
330
2
100
AcDbEntity
  8
ANCON-HLD
100
AcDbLine
 10
7424.455137541436
 20
-2257.109033274492
 30
0.0
 11
7424.455137541436
 21
-2227.109033274492
 31
0.0
  0
LINE
  5
41
330
2
100
AcDbEntity
  8
ANCON-HLD
100
AcDbLine
 10
7424.455137541436
 20
-2001.631342318729
 30
0.0
 11
7424.455137541436
 21
-1971.631342318729
 31
0.0
  0
LINE
  5
42
330
2
100
AcDbEntity
  8
ANCON-HLD
100
AcDbLine
 10
7059.455137541435
 20
-1971.631342318729
 30
0.0
 11
7424.455137541437
 21
-1971.631342318729
 31
0.0
  0
LINE
  5
43
330
2
100
AcDbEntity
  8
ANCON-HLD
100
AcDbLine
 10
7059.455137541435
 20
-2001.631342318729
 30
0.0
 11
7424.455137541437
 21
-2001.631342318729
 31
0.0
  0
LINE
  5
44
330
2
100
AcDbEntity
  8
ANCON-HLD
100
AcDbLine
 10
7059.455137541435
 20
-2227.109033274492
 30
0.0
 11
7424.455137541437
 21
-2227.109033274492
 31
0.0
  0
LINE
  5
45
330
2
100
AcDbEntity
  8
ANCON-HLD
100
AcDbLine
 10
7059.455137541435
 20
-2257.109033274492
 30
0.0
 11
7424.455137541437
 21
-2257.109033274492
 31
0.0
  0
LINE
  5
57
330
2
100
AcDbEntity
  8
CENTRE
 48
0.5
100
AcDbLine
 10
7038.058623120858
 20
-2242.10903327449
 30
0.0
 11
7434.278720752582
 21
-2242.109033274493
 31
0.0
  0
LINE
  5
64
330
2
100
AcDbEntity
  8
CENTRE
 48
0.5
100
AcDbLine
 10
7434.278720752582
 20
-1986.631342318729
 30
0.0
 11
7038.060792531187
 21
-1986.631342318729
 31
0.0
  0
LINE
  5
6B
330
2
100
AcDbEntity
  8
ANCON-HLD
100
AcDbLine
 10
7059.455137541435
 20
-2001.631342318729
 30
0.0
 11
7059.455137541435
 21
-1971.631342318729
 31
0.0
  0
LINE
  5
70
330
2
100
AcDbEntity
  8
ANCON-CONCRETE
100
AcDbLine
 10
7224.455137541437
 20
-1900.162566257755
 30
0.0
 11
7224.455137541437
 21
-2073.100118379703
 31
0.0
  0
LINE
  5
72
330
2
100
AcDbEntity
  8
ANCON-CONCRETE
100
AcDbLine
 10
7224.455137541437
 20
-2155.640257213518
 30
0.0
 11
7224.455137541437
 21
-2328.577809335466
 31
0.0
  0
LINE
  5
73
330
2
100
AcDbEntity
  8
CENTRE
 48
0.5
100
AcDbLine
 10
7224.455137541437
 20
-2242.109033274491
 30
0.0
 11
7027.322208993159
 21
-2242.109033274491
 31
0.0
  0
LINE
  5
74
330
2
100
AcDbEntity
  8
ANCON-HLD
100
AcDbLine
 10
7220.455137541438
 20
-2172.609033274492
 30
0.0
 11
7220.455137541438
 21
-2311.609033274491
 31
0.0
  0
LINE
  5
75
330
2
100
AcDbEntity
  8
ANCON-HLD
100
AcDbLine
 10
7118.455137541437
 20
-2184.609033274491
 30
0.0
 11
7118.455137541437
 21
-2299.609033274491
 31
0.0
  0
LINE
  5
76
330
2
100
AcDbEntity
  8
ANCON-HLD
100
AcDbLine
 10
7114.455137541438
 20
-2184.609033274491
 30
0.0
 11
7114.455137541438
 21
-2299.609033274491
 31
0.0
  0
LINE
  5
77
330
2
100
AcDbEntity
  8
ANCON-HLD
100
AcDbLine
 10
7224.455137541437
 20
-2172.609033274492
 30
0.0
 11
7224.455137541437
 21
-2311.609033274491
 31
0.0
  0
LINE
  5
78
330
2
100
AcDbEntity
  8
ANCON-HLD
100
AcDbLine
 10
7220.455137541438
 20
-2184.609033274491
 30
0.0
 11
7114.455137541438
 21
-2184.609033274491
 31
0.0
  0
LINE
  5
79
330
2
100
AcDbEntity
  8
ANCON-HLD
100
AcDbLine
 10
7224.455137541437
 20
-2172.609033274492
 30
0.0
 11
7220.455137541438
 21
-2172.609033274492
 31
0.0
  0
LINE
  5
7A
330
2
100
AcDbEntity
  8
ANCON-HLD
100
AcDbLine
 10
7220.455137541438
 20
-2299.609033274491
 30
0.0
 11
7114.455137541438
 21
-2299.609033274491
 31
0.0
  0
LINE
  5
7B
330
2
100
AcDbEntity
  8
ANCON-HLD
100
AcDbLine
 10
7224.455137541437
 20
-2311.609033274491
 30
0.0
 11
7220.455137541438
 21
-2311.609033274491
 31
0.0
  0
LINE
  5
7C
330
2
100
AcDbEntity
  8
ANCON-HLD
100
AcDbLine
 10
7631.449412669431
 20
-1935.131342318728
 30
0.0
 11
7631.449412669431
 21
-1916.63134231873
 31
0.0
  0
LINE
  5
7D
330
2
100
AcDbEntity
  8
ANCON-HLD
100
AcDbLine
 10
7516.449412669432
 20
-1935.131342318729
 30
0.0
 11
7516.449412669432
 21
-1916.63134231873
 31
0.0
  0
LINE
  5
7E
330
2
100
AcDbEntity
  8
ANCON-HLD
100
AcDbLine
 10
7643.449412669432
 20
-2038.131342318729
 30
0.0
 11
7504.449412669432
 21
-2038.131342318729
 31
0.0
  0
LINE
  5
7F
330
2
100
AcDbEntity
  8
ANCON-HLD
100
AcDbLine
 10
7643.449412669432
 20
-1935.131342318729
 30
0.0
 11
7504.449412669432
 21
-1935.131342318729
 31
0.0
  0
CIRCLE
  5
80
330
2
100
AcDbEntity
  8
ANCON-HLD
100
AcDbCircle
 10
7573.949412669432
 20
-1986.631342318729
 30
0.0
 40
15.5
  0
CIRCLE
  5
81
330
2
100
AcDbEntity
  8
ANCON-HLD
100
AcDbCircle
 10
7573.949412669432
 20
-1986.631342318729
 30
0.0
 40
17.5
  0
LINE
  5
82
330
2
100
AcDbEntity
  8
ANCON-HLD
100
AcDbLine
 10
7504.449412669432
 20
-2038.131342318729
 30
0.0
 11
7504.449412669432
 21
-1935.131342318729
 31
0.0
  0
CIRCLE
  5
83
330
2
100
AcDbEntity
  8
ANCON-HLD
100
AcDbCircle
 10
7509.449412669432
 20
-2033.131342318729
 30
0.0
 40
2.5
  0
LINE
  5
84
330
2
100
AcDbEntity
  8
CENTRE
 48
0.125
100
AcDbLine
 10
7509.449412669432
 20
-2028.131342318729
 30
0.0
 11
7509.449412669432
 21
-2038.131342318729
 31
0.0
  0
LINE
  5
85
330
2
100
AcDbEntity
  8
CENTRE
 48
0.125
100
AcDbLine
 10
7514.449412669431
 20
-2033.131342318729
 30
0.0
 11
7504.449412669432
 21
-2033.131342318729
 31
0.0
  0
LINE
  5
86
330
2
100
AcDbEntity
  8
ANCON-HLD
100
AcDbLine
 10
7516.449412669432
 20
-2056.631342318731
 30
0.0
 11
7516.449412669432
 21
-2038.131342318729
 31
0.0
  0
LINE
  5
87
330
2
100
AcDbEntity
  8
CENTRE
 48
0.125
100
AcDbLine
 10
7509.449412669432
 20
-1935.131342318729
 30
0.0
 11
7509.449412669432
 21
-1945.131342318729
 31
0.0
  0
LINE
  5
88
330
2
100
AcDbEntity
  8
CENTRE
 48
0.125
100
AcDbLine
 10
7514.449412669431
 20
-1940.131342318729
 30
0.0
 11
7504.449412669432
 21
-1940.131342318729
 31
0.0
  0
CIRCLE
  5
89
330
2
100
AcDbEntity
  8
ANCON-HLD
100
AcDbCircle
 10
7509.449412669432
 20
-1940.131342318729
 30
0.0
 40
2.5
  0
LINE
  5
8A
330
2
100
AcDbEntity
  8
ANCON-HLD
100
AcDbLine
 10
7643.449412669432
 20
-2038.131342318729
 30
0.0
 11
7643.449412669432
 21
-1935.131342318729
 31
0.0
  0
LINE
  5
8B
330
2
100
AcDbEntity
  8
CENTRE
 48
0.125
100
AcDbLine
 10
7643.449412669432
 20
-2033.131342318729
 30
0.0
 11
7633.449412669432
 21
-2033.131342318729
 31
0.0
  0
LINE
  5
8C
330
2
100
AcDbEntity
  8
ANCON-HLD
100
AcDbLine
 10
7631.449412669431
 20
-2056.631342318731
 30
0.0
 11
7631.449412669431
 21
-2038.131342318729
 31
0.0
  0
LINE
  5
8D
330
2
100
AcDbEntity
  8
CENTRE
 48
0.125
100
AcDbLine
 10
7638.449412669432
 20
-2028.131342318729
 30
0.0
 11
7638.449412669432
 21
-2038.131342318729
 31
0.0
  0
CIRCLE
  5
8E
330
2
100
AcDbEntity
  8
ANCON-HLD
100
AcDbCircle
 10
7638.449412669432
 20
-2033.131342318729
 30
0.0
 40
2.5
  0
LINE
  5
8F
330
2
100
AcDbEntity
  8
CENTRE
 48
0.125
100
AcDbLine
 10
7643.449412669432
 20
-1940.131342318729
 30
0.0
 11
7633.449412669432
 21
-1940.131342318729
 31
0.0
  0
CIRCLE
  5
90
330
2
100
AcDbEntity
  8
ANCON-HLD
100
AcDbCircle
 10
7638.449412669432
 20
-1940.131342318729
 30
0.0
 40
2.5
  0
LINE
  5
91
330
2
100
AcDbEntity
  8
CENTRE
 48
0.125
100
AcDbLine
 10
7638.449412669432
 20
-1935.131342318729
 30
0.0
 11
7638.449412669432
 21
-1945.131342318729
 31
0.0
  0
LINE
  5
92
330
2
100
AcDbEntity
  8
ANCON-HLD
100
AcDbLine
 10
7631.449412669431
 20
-1916.63134231873
 30
0.0
 11
7591.449412669432
 21
-1916.631342318729
 31
0.0
  0
LINE
  5
93
330
2
100
AcDbEntity
  8
ANCON-HLD
100
AcDbLine
 10
7224.455137541437
 20
-1935.131342318729
 30
0.0
 11
7220.455137541438
 21
-1935.131342318729
 31
0.0
  0
LINE
  5
94
330
2
100
AcDbEntity
  8
ANCON-HLD
100
AcDbLine
 10
7220.455137541438
 20
-2038.131342318729
 30
0.0
 11
7220.455137541438
 21
-1935.13134231873
 31
0.0
  0
LINE
  5
95
330
2
100
AcDbEntity
  8
ANCON-HLD
100
AcDbLine
 10
7224.455137541437
 20
-2038.131342318729
 30
0.0
 11
7224.455137541437
 21
-1935.131342318729
 31
0.0
  0
LINE
  5
96
330
2
100
AcDbEntity
  8
ANCON-HLD
100
AcDbLine
 10
7224.455137541437
 20
-2038.131342318729
 30
0.0
 11
7220.455137541438
 21
-2038.131342318729
 31
0.0
  0
LINE
  5
97
330
2
100
AcDbEntity
  8
ANCON-HLD
100
AcDbLine
 10
7224.455137541437
 20
-2175.109033274491
 30
0.0
 11
7220.455137541438
 21
-2175.109033274491
 31
0.0
  0
LINE
  5
98
330
2
100
AcDbEntity
  8
ANCON-HLD
100
AcDbLine
 10
7224.455137541437
 20
-2180.109033274491
 30
0.0
 11
7220.455137541438
 21
-2180.109033274491
 31
0.0
  0
LINE
  5
99
330
2
100
AcDbEntity
  8
ANCON-HLD
100
AcDbLine
 10
7224.455137541437
 20
-2309.109033274491
 30
0.0
 11
7220.455137541438
 21
-2309.109033274491
 31
0.0
  0
LINE
  5
9A
330
2
100
AcDbEntity
  8
ANCON-HLD
100
AcDbLine
 10
7224.455137541437
 20
-2304.109033274491
 30
0.0
 11
7220.455137541438
 21
-2304.109033274491
 31
0.0
  0
CIRCLE
  5
9B
330
2
100
AcDbEntity
  8
ANCON-HLD
100
AcDbCircle
 10
7169.455137541437
 20
-2242.109033274491
 30
0.0
 40
17.5
  0
LWPOLYLINE
  5
9C
330
2
100
AcDbEntity
  8
ANCON-HLD
100
AcDbPolyline
 90
        4
 70
     0
 43
0.0
 10
7033.455137541437
 20
-1986.63134231873
 10
7033.455137541437
 20
-2004.131342318729
 42
0.4142135623730951
 10
7034.455137541439
 20
-2005.13134231873
 10
7053.455137541438
 20
-2005.13134231873
  0
LWPOLYLINE
  5
9D
330
2
100
AcDbEntity
  8
ANCON-HLD
100
AcDbPolyline
 90
        4
 70
     0
 43
0.0
 10
7033.455137541437
 20
-1986.631342318729
 10
7033.455137541437
 20
-1969.131342318729
 42
-0.4142135623730951
 10
7034.455137541439
 20
-1968.131342318729
 10
7053.455137541438
 20
-1968.131342318729
  0
LINE
  5
9E
330
2
100
AcDbEntity
  8
ANCON-HLD
100
AcDbLine
 10
7053.455137541438
 20
-1986.631342318729
 30
0.0
 11
7053.455137541438
 21
-2005.13134231873
 31
0.0
  0
LINE
  5
9F
330
2
100
AcDbEntity
  8
ANCON-HLD
100
AcDbLine
 10
7053.455137541438
 20
-1986.631342318729
 30
0.0
 11
7053.455137541438
 21
-1968.131342318729
 31
0.0
  0
LWPOLYLINE
  5
A0
330
2
100
AcDbEntity
  8
ANCON-HLD
100
AcDbPolyline
 90
        4
 70
     0
 43
0.0
 10
7033.455137541437
 20
-2242.251312038872
 10
7033.455137541437
 20
-2259.609033274491
 42
0.4142135623730951
 10
7034.455137541439
 20
-2260.609033274491
 10
7053.455137541438
 20
-2260.609033274491
  0
LWPOLYLINE
  5
A1
330
2
100
AcDbEntity
  8
ANCON-HLD
100
AcDbPolyline
 90
        4
 70
     0
 43
0.0
 10
7033.455137541437
 20
-2242.251312038872
 10
7033.455137541437
 20
-2224.893590803252
 42
-0.4142135623730951
 10
7034.455137541439
 20
-2223.893590803252
 10
7053.455137541438
 20
-2223.893590803252
  0
LINE
  5
A2
330
2
100
AcDbEntity
  8
ANCON-HLD
100
AcDbLine
 10
7053.455137541438
 20
-2223.893590803252
 30
0.0
 11
7053.455137541438
 21
-2260.609033274491
 31
0.0
  0
LINE
  5
A3
330
2
100
AcDbEntity
  8
ANCON-HLD
100
AcDbLine
 10
7108.775844669408
 20
-2004.131342318729
 30
0.0
 11
7220.455137541438
 21
-2004.131342318729
 31
0.0
  0
LINE
  5
A4
330
2
100
AcDbEntity
  8
ANCON-HLD
100
AcDbLine
 10
7108.775844669408
 20
-1969.131342318729
 30
0.0
 11
7220.455137541438
 21
-1969.131342318729
 31
0.0
  0
LWPOLYLINE
  5
A5
330
2
100
AcDbEntity
  8
ANCON-HLD
100
AcDbPolyline
 90
        2
 70
     0
 43
0.0
 10
7053.455137541438
 20
-1969.131342318729
 10
7104.77584466941
 20
-1969.131342318729
  0
LWPOLYLINE
  5
A6
330
2
100
AcDbEntity
  8
ANCON-HLD
100
AcDbPolyline
 90
        2
 70
     0
 43
0.0
 10
7053.455137541438
 20
-2004.131342318729
 10
7104.77584466941
 20
-2004.131342318729
  0
LINE
  5
A7
330
2
100
AcDbEntity
  8
ANCON-HLD
100
AcDbLine
 10
7114.455137541444
 20
-2259.609033274491
 30
0.0
 11
7053.455137541438
 21
-2259.609033274491
 31
0.0
  0
LINE
  5
A8
330
2
100
AcDbEntity
  8
ANCON-HLD
100
AcDbLine
 10
7053.455137541438
 20
-2224.609033274491
 30
0.0
 11
7114.455137541444
 21
-2224.609033274491
 31
0.0
  0
LINE
  5
A9
330
2
100
AcDbEntity
  8
CENTRE
 48
0.5
100
AcDbLine
 10
7552.074412669433
 20
-1986.631342318729
 30
0.0
 11
7595.824412669433
 21
-1986.631342318729
 31
0.0
  0
LINE
  5
AA
330
2
100
AcDbEntity
  8
CENTRE
 48
0.5
100
AcDbLine
 10
7573.949412669432
 20
-2064.443842318731
 30
0.0
 11
7573.949412669432
 21
-1908.81884231873
 31
0.0
  0
LINE
  5
AB
330
2
100
AcDbEntity
  8
CENTRE
 48
0.125
100
AcDbLine
 10
7228.455137541438
 20
-2306.609033274491
 30
0.0
 11
7216.455137541437
 21
-2306.609033274491
 31
0.0
  0
LINE
  5
AC
330
2
100
AcDbEntity
  8
CENTRE
 48
0.125
100
AcDbLine
 10
7228.455137541438
 20
-2177.609033274491
 30
0.0
 11
7216.455137541437
 21
-2177.609033274491
 31
0.0
  0
LINE
  5
AD
330
2
100
AcDbEntity
  8
CENTRE
 48
0.125
100
AcDbLine
 10
7228.455137541438
 20
-1940.131342318729
 30
0.0
 11
7216.455137541437
 21
-1940.131342318729
 31
0.0
  0
LINE
  5
AE
330
2
100
AcDbEntity
  8
CENTRE
 48
0.125
100
AcDbLine
 10
7228.455137541438
 20
-2033.131342318729
 30
0.0
 11
7216.455137541437
 21
-2033.131342318729
 31
0.0
  0
LINE
  5
AF
330
2
100
AcDbEntity
  8
CENTRE
 48
0.5
100
AcDbLine
 10
7169.455137541437
 20
-2220.234033274491
 30
0.0
 11
7169.455137541437
 21
-2263.984033274491
 31
0.0
  0
LINE
  5
B0
330
2
100
AcDbEntity
  8
ANCON-HLD
100
AcDbLine
 10
7104.77584466941
 20
-2016.296136267111
 30
0.0
 11
7104.77584466941
 21
-1956.966548370346
 31
0.0
  0
LINE
  5
B1
330
2
100
AcDbEntity
  8
ANCON-HLD
100
AcDbLine
 10
7108.775844669409
 20
-2016.296136267111
 30
0.0
 11
7108.775844669409
 21
-1956.966548370346
 31
0.0
  0
ARC
  5
B2
330
2
100
AcDbEntity
  8
ANCON-HLD
100
AcDbCircle
 10
7164.77584466941
 20
-1986.631342318728
 30
0.0
 40
66.0
100
AcDbArc
 50
217.2579160013177
 51
322.6947990342263
  0
ARC
  5
B3
330
2
100
AcDbEntity
  8
ANCON-HLD
100
AcDbCircle
 10
7164.77584466941
 20
-1986.631342318728
 30
0.0
 40
66.0
100
AcDbArc
 50
37.30520096575798
 51
142.7420839986823
  0
ARC
  5
B4
330
2
100
AcDbEntity
  8
ANCON-HLD
100
AcDbCircle
 10
7125.775844669409
 20
-1956.966548370346
 30
0.0
 40
17.0
100
AcDbArc
 50
142.7420839986823
 51
180.0
  0
ARC
  5
B5
330
2
100
AcDbEntity
  8
ANCON-HLD
100
AcDbCircle
 10
7164.77584466941
 20
-1986.631342318728
 30
0.0
 40
70.0
100
AcDbArc
 50
217.2579160013177
 51
322.6947990342263
  0
ARC
  5
B6
330
2
100
AcDbEntity
  8
ANCON-HLD
100
AcDbCircle
 10
7164.77584466941
 20
-1986.631342318728
 30
0.0
 40
70.0
100
AcDbArc
 50
37.30520096575798
 51
142.7420839986823
  0
ARC
  5
B7
330
2
100
AcDbEntity
  8
ANCON-HLD
100
AcDbCircle
 10
7125.775844669409
 20
-1956.966548370346
 30
0.0
 40
21.0
100
AcDbArc
 50
142.7420839986823
 51
180.0
  0
ARC
  5
B8
330
2
100
AcDbEntity
  8
ANCON-HLD
100
AcDbCircle
 10
7125.775844669409
 20
-2016.296136267111
 30
0.0
 40
21.0
100
AcDbArc
 50
180.0
 51
217.2579160013177
  0
LINE
  5
B9
330
2
100
AcDbEntity
  8
ANCON-HLD
100
AcDbLine
 10
7217.273463663037
 20
-1946.631342318728
 30
0.0
 11
7220.455137541438
 21
-1944.207099894486
 31
0.0
  0
LINE
  5
BA
330
2
100
AcDbEntity
  8
ANCON-HLD
100
AcDbLine
 10
7217.273463663037
 20
-2026.631342318728
 30
0.0
 11
7220.455137541438
 21
-2029.05558474297
 31
0.0
  0
LINE
  5
BB
330
2
100
AcDbEntity
  8
ANCON-HLD
100
AcDbLine
 10
7181.574267833349
 20
-2050.457770851157
 30
0.0
 11
7182.592354085709
 21
-2054.326039247062
 31
0.0
  0
LINE
  5
BC
330
2
100
AcDbEntity
  8
ANCON-HLD
100
AcDbLine
 10
7147.97742150547
 20
-2050.457770851157
 30
0.0
 11
7146.959335253111
 21
-2054.326039247062
 31
0.0
  0
ARC
  5
BD
330
2
100
AcDbEntity
  8
ANCON-HLD
100
AcDbCircle
 10
7125.775844669409
 20
-2016.296136267111
 30
0.0
 40
17.0
100
AcDbArc
 50
180.0
 51
217.2579160013177
  0
LINE
  5
BE
330
2
100
AcDbEntity
  8
CENTRE
 48
0.5
100
AcDbLine
 10
7164.77584466941
 20
-1908.818842318728
 30
0.0
 11
7164.77584466941
 21
-2064.443842318729
 31
0.0
  0
LINE
  5
BF
330
2
100
AcDbEntity
  8
ANCON-HLD
100
AcDbLine
 10
7556.449412669431
 20
-1916.631342318729
 30
0.0
 11
7516.449412669432
 21
-1916.63134231873
 31
0.0
  0
ELLIPSE
  5
C0
330
2
100
AcDbEntity
  8
ANCON-HLD
100
AcDbEllipse
 10
7573.949412669432
 20
-1916.631342318729
 30
0.0
 11
-17.5
 21
0.0
 31
0.0
210
0.0
220
0.0
230
1.0
 40
0.1317316040952781
 41
0.0
 42
3.141592653589793
  0
ELLIPSE
  5
C1
330
2
100
AcDbEntity
  8
ANCON-HLD
100
AcDbEllipse
 10
7573.949412669432
 20
-2056.631342318729
 30
0.0
 11
-17.5
 21
0.0
 31
0.0
210
0.0
220
0.0
230
-1.0
 40
0.1317316040952781
 41
0.0
 42
3.141592653589793
  0
LINE
  5
C2
330
2
100
AcDbEntity
  8
ANCON-HLD
100
AcDbLine
 10
7556.449412669431
 20
-2056.631342318729
 30
0.0
 11
7516.449412669432
 21
-2056.631342318729
 31
0.0
  0
LINE
  5
C3
330
2
100
AcDbEntity
  8
ANCON-HLD
100
AcDbLine
 10
7631.449412669431
 20
-2056.631342318729
 30
0.0
 11
7591.449412669432
 21
-2056.631342318729
 31
0.0
  0
LINE
  5
C4
330
2
100
AcDbEntity
  8
CENTRE
 48
0.5
100
AcDbLine
 10
7174.455137541437
 20
-1993.23734647527
 30
0.0
 11
7174.455137541437
 21
-1980.025338162189
 31
0.0
  0
CIRCLE
  5
C5
330
2
100
AcDbEntity
  8
ANCON-HLD
100
AcDbCircle
 10
7174.455137541437
 20
-1986.631342318729
 30
0.0
 40
2.5
  0
LINE
  5
C6
330
2
100
AcDbEntity
  8
ANCON-TEXT
100
AcDbLine
 10
7215.490845628814
 20
-2388.337092081495
 30
0.0
 11
7215.490845628814
 21
-2441.435338215588
 31
0.0
  0
TEXT
  5
CA
330
2
100
AcDbEntity
  8
ANCON-TEXT
100
AcDbText
 10
7177.56906062041
 20
-2430.619781122489
 30
0.0
 40
5.0
  1
???
  7
ROMANS
 72
     4
 11
7183.997632048981
 21
-2428.119781122489
 31
0.0
100
AcDbText
  0
LINE
  5
CB
330
2
100
AcDbEntity
  8
ANCON-TEXT
100
AcDbLine
 10
7150.620261494013
 20
-2388.337092081495
 30
0.0
 11
7150.620261494013
 21
-2441.435338215588
 31
0.0
  0
TEXT
  5
CC
330
2
100
AcDbEntity
  8
ANCON-TEXT
100
AcDbText
 10
7156.140489191837
 20
-2398.597977743905
 30
0.0
 40
5.0
  1
SERVICEABILITY
  7
ROMANS
 72
     4
 11
7183.997632048981
 21
-2396.097977743905
 31
0.0
100
AcDbText
  0
TEXT
  5
CD
330
2
100
AcDbEntity
  8
ANCON-TEXT
100
AcDbText
 10
7159.235727287075
 20
-2409.541256682484
 30
0.0
 40
5.0
  1
LOAD ( kN )
  7
ROMANS
 72
     4
 11
7183.997632048981
 21
-2407.398399539627
 31
0.0
100
AcDbText
  0
LINE
  5
CE
330
2
100
AcDbEntity
  8
ANCON-TEXT
100
AcDbLine
 10
7090.112167936952
 20
-2388.337092081495
 30
0.0
 11
7090.112167936952
 21
-2441.435338215588
 31
0.0
  0
TEXT
  5
CF
330
2
100
AcDbEntity
  8
ANCON-TEXT
100
AcDbText
 10
7042.185504466974
 20
-2398.602808241037
 30
0.0
 40
5.0
  1
E-HLD REF:
  7
ROMANS
 72
     4
 11
7065.280742562213
 21
-2396.102808241037
 31
0.0
100
AcDbText
  0
TEXT
  5
D0
330
2
100
AcDbEntity
  8
ANCON-TEXT
100
AcDbText
 10
7044.116679668028
 20
-2430.619781122489
 30
0.0
 40
5.0
  1
E-HLD 30
  7
ROMANS
 72
     4
 11
7063.99763204898
 21
-2428.119781122489
 31
0.0
100
AcDbText
  0
LINE
  5
D1
330
2
100
AcDbEntity
  8
ANCON-TEXT
100
AcDbLine
 10
7040.112167936952
 20
-2388.337092081495
 30
0.0
 11
7040.112167936952
 21
-2441.435338215588
 31
0.0
  0
LINE
  5
D2
330
2
100
AcDbEntity
  8
ANCON-TEXT
100
AcDbLine
 10
7040.112167936952
 20
-2441.435338215588
 30
0.0
 11
7215.490845628814
 21
-2441.435338215588
 31
0.0
  0
LINE
  5
D3
330
2
100
AcDbEntity
  8
ANCON-TEXT
100
AcDbLine
 10
7040.112167936952
 20
-2414.407853140541
 30
0.0
 11
7215.490845628814
 21
-2414.407853140541
 31
0.0
  0
LINE
  5
D4
330
2
100
AcDbEntity
  8
ANCON-TEXT
100
AcDbLine
 10
7040.112167936952
 20
-2388.337092081495
 30
0.0
 11
7215.490845628814
 21
-2388.337092081495
 31
0.0
  0
TEXT
  5
D5
330
2
100
AcDbEntity
  8
ANCON-TEXT
100
AcDbText
 10
7095.215836301839
 20
-2398.602808241037
 30
0.0
 40
5.0
  1
DESIGN JOINT
  7
ROMANS
 72
     4
 11
7121.287264873268
 21
-2396.102808241037
 31
0.0
100
AcDbText
  0
TEXT
  5
D6
330
2
100
AcDbEntity
  8
ANCON-TEXT
100
AcDbText
 10
7111.616679668029
 20
-2430.619781122489
 30
0.0
 40
5.0
  1
?? MM
  7
ROMANS
 72
     4
 11
7123.99763204898
 21
-2428.119781122489
 31
0.0
100
AcDbText
  0
TEXT
  5
D7
330
2
100
AcDbEntity
  8
ANCON-TEXT
100
AcDbText
 10
7110.692026778029
 20
-2409.500431628656
 30
0.0
 40
5.0
  1
WIDTH
  7
ROMANS
 72
     4
 11
7121.287264873268
 21
-2407.000431628656
 31
0.0
100
AcDbText
  0
LINE
  5
D8
330
2
100
AcDbEntity
  8
ANCON-TEXT
100
AcDbLine
 10
7554.474340986608
 20
-2420.22081785537
 30
0.0
 11
7554.474340986608
 21
-2473.25451044092
 31
0.0
  0
LINE
  5
D9
330
2
100
AcDbEntity
  8
ANCON-TEXT
100
AcDbLine
 10
7421.665506919191
 20
-2390.854304188276
 30
0.0
 11
7421.665506919191
 21
-2402.772279480277
 31
0.0
  0
LINE
  5
DA
330
2
100
AcDbEntity
  8
ANCON-TEXT
100
AcDbLine
 10
7350.154088912707
 20
-2390.854304188276
 30
0.0
 11
7350.154088912707
 21
-2402.772279480277
 31
0.0
  0
LINE
  5
DB
330
2
100
AcDbEntity
  8
ANCON-TEXT
100
AcDbLine
 10
7351.987390879968
 20
-2420.22081785537
 30
0.0
 11
7351.987390879968
 21
-2473.25451044092
 31
0.0
  0
TEXT
  5
DC
330
2
100
AcDbEntity
  8
ANCON-TEXT
100
AcDbText
 10
7357.256852365103
 20
-2469.551460009491
 30
0.0
 40
5.0
  1
LOAD OF ??? kN
  7
ROMANS
 72
     4
 11
7389.875899984151
 21
-2467.051460009491
 31
0.0
100
AcDbText
  0
LINE
  5
DD
330
2
100
AcDbEntity
  8
ANCON-TEXT
100
AcDbLine
 10
7350.154088912707
 20
-2390.854304188276
 30
0.0
 11
7421.665506919191
 21
-2390.854304188276
 31
0.0
  0
LINE
  5
DE
330
2
100
AcDbEntity
  8
ANCON-TEXT
100
AcDbLine
 10
7350.154088912707
 20
-2402.772279480277
 30
0.0
 11
7421.665506919191
 21
-2402.772279480277
 31
0.0
  0
TEXT
  5
DF
330
2
100
AcDbEntity
  8
ANCON-TEXT
100
AcDbText
 10
7351.481500553361
 20
-2399.491414304119
 30
0.0
 40
5.0
  1
ANCON E-HLD 30
  7
ROMANS
 72
     4
 11
7386.00531007717
 21
-2396.991414304119
 31
0.0
100
AcDbText
  0
TEXT
  5
E0
330
2
100
AcDbEntity
  8
ANCON-TEXT
100
AcDbText
 10
7224.558655198682
 20
-2429.425868768615
 30
0.0
 40
5.0
  1
SPECIFICATION BY DESCRIPTION
  7
ROMANS
 72
     4
 11
7284.201512341539
 21
-2426.925868768615
 31
0.0
100
AcDbText
  0
TEXT
  5
E1
330
2
100
AcDbEntity
  8
ANCON-TEXT
100
AcDbText
 10
7224.415018589055
 20
-2399.491414304119
 30
0.0
 40
5.0
  1
SPECIFICATION BY PRODUCT
  7
ROMANS
 72
     4
 11
7277.867399541435
 21
-2396.991414304119
 31
0.0
100
AcDbText
  0
TEXT
  5
E2
330
2
100
AcDbEntity
  8
ANCON-TEXT
100
AcDbText
 10
7356.279124084807
 20
-2429.46161739514
 30
0.0
 40
5.0
  1
TWO PART STAINLESS STEEL SHEAR CONNECTOR
  7
ROMANS
 72
     4
 11
7448.898171703856
 21
-2426.96161739514
 31
0.0
100
AcDbText
  0
TEXT
  5
E3
330
2
100
AcDbEntity
  8
ANCON-TEXT
100
AcDbText
 10
7355.55793967875
 20
-2439.566329720931
 30
0.0
 40
5.0
  1
COMPRISING SLEEVE AND DOWEL COMPONENT
  7
ROMANS
 72
     4
 11
7443.534130154941
 21
-2437.066329720931
 31
0.0
100
AcDbText
  0
TEXT
  5
E4
330
2
100
AcDbEntity
  8
ANCON-TEXT
100
AcDbText
 10
7356.071071608759
 20
-2459.516534844529
 30
0.0
 40
5.0
  1
AND CAPABLE OF TRANSFERRING A SERVICEABILITY
  7
ROMANS
 72
     4
 11
7453.452023989711
 21
-2457.016534844529
 31
0.0
100
AcDbText
  0
LINE
  5
E5
330
2
100
AcDbEntity
  8
ANCON-TEXT
100
AcDbLine
 10
7351.987390879968
 20
-2473.25451044092
 30
0.0
 11
7554.474340986608
 21
-2473.25451044092
 31
0.0
  0
LINE
  5
E6
330
2
100
AcDbEntity
  8
ANCON-TEXT
100
AcDbLine
 10
7351.987390879968
 20
-2420.22081785537
 30
0.0
 11
7554.474340986608
 21
-2420.22081785537
 31
0.0
  0
TEXT
  5
E7
330
2
100
AcDbEntity
  8
ANCON-TEXT
100
AcDbText
 10
7355.616636438809
 20
-2449.4674774306
 30
0.0
 40
5.0
  1
SUITABLE FOR A DESIGN JOINT WIDTH OF ?? MM
  7
ROMANS
 72
     4
 11
7450.497588819761
 21
-2446.9674774306
 31
0.0
100
AcDbText
  0
ENDSEC
  0
SECTION
  2
OBJECTS
  0
DICTIONARY
  5
C
330
0
100
AcDbDictionary
281
     1
  3
ACAD_COLOR
350
33
  3
ACAD_GROUP
350
2F
  3
ACAD_LAYOUT
350
10
  3
ACAD_MATERIAL
350
32
  3
ACAD_MLEADERSTYLE
350
136
  3
ACAD_MLINESTYLE
350
30
  3
ACAD_PLOTSETTINGS
350
31
  3
ACAD_PLOTSTYLENAME
350
B
  3
ACAD_SCALELIST
350
114
  3
ACAD_TABLESTYLE
350
34
  3
ACAD_VISUALSTYLE
350
28
  3
ACDB_RECOMPOSE_DATA
350
170
  3
AcDbVariableDictionary
350
EA
  3
DWGPROPS
350
171
  0
DICTIONARY
  5
25
330
23
100
AcDbDictionary
280
     1
281
     1
  0
DICTIONARY
  5
19
330
18
100
AcDbDictionary
280
     1
281
     1
  3
ACAD_LAYERSTATES
360
1A
  0
DICTIONARY
  5
8
330
7
100
AcDbDictionary
280
     1
281
     1
  3
ADSK_XREC_LAYER_RECONCILED
360
9
  0
DICTIONARY
  5
36
330
35
100
AcDbDictionary
280
     1
281
     1
  3
ADSK_XREC_LAYER_RECONCILED
360
37
  0
DICTIONARY
  5
C8
330
C7
100
AcDbDictionary
280
     1
281
     1
  3
ADSK_XREC_LAYER_RECONCILED
360
C9
  0
DICTIONARY
  5
59
330
58
100
AcDbDictionary
280
     1
281
     1
  3
ADSK_XREC_LAYER_RECONCILED
360
5A
  0
DICTIONARY
  5
3
330
2
100
AcDbDictionary
280
     1
281
     1
  3
ACAD_LAYOUTSELFREF
360
4
  3
ACAD_SORTENTS
360
E8
  0
DICTIONARY
  5
13
330
12
100
AcDbDictionary
280
     1
281
     1
  3
ACAD_LAYOUTSELFREF
360
14
  0
DICTIONARY
  5
33
102
{ACAD_REACTORS
330
C
102
}
330
C
100
AcDbDictionary
281
     1
  0
DICTIONARY
  5
2F
102
{ACAD_REACTORS
330
C
102
}
330
C
100
AcDbDictionary
281
     1
  0
DICTIONARY
  5
10
102
{ACAD_REACTORS
330
C
102
}
330
C
100
AcDbDictionary
281
     1
  3
Layout1
350
17
  3
Model
350
F
  0
DICTIONARY
  5
32
102
{ACAD_REACTORS
330
C
102
}
330
C
100
AcDbDictionary
281
     1
  3
ByBlock
350
F5
  3
ByLayer
350
ED
  3
Global
350
FD
  0
DICTIONARY
  5
136
102
{ACAD_REACTORS
330
C
102
}
330
C
100
AcDbDictionary
281
     1
  3
Standard
350
137
  0
DICTIONARY
  5
30
102
{ACAD_REACTORS
330
C
102
}
330
C
100
AcDbDictionary
281
     1
  3
STANDARD
350
38
  0
DICTIONARY
  5
31
102
{ACAD_REACTORS
330
C
102
}
330
C
100
AcDbDictionary
281
     1
  0
ACDBDICTIONARYWDFLT
  5
B
102
{ACAD_REACTORS
330
C
102
}
330
C
100
AcDbDictionary
281
     1
  3
Normal
350
A
100
AcDbDictionaryWithDefault
340
A
  0
DICTIONARY
  5
114
102
{ACAD_REACTORS
330
C
102
}
330
C
100
AcDbDictionary
281
     1
  3
A0
350
115
  3
A1
350
116
  3
A2
350
117
  3
A3
350
118
  3
A4
350
119
  3
A5
350
11A
  3
A6
350
11B
  3
A7
350
11C
  3
A8
350
11D
  3
A9
350
11E
  3
B0
350
11F
  3
B1
350
120
  3
B2
350
121
  3
B3
350
122
  3
B4
350
123
  3
B5
350
124
  3
B6
350
125
  3
B7
350
126
  3
B8
350
127
  3
B9
350
128
  3
C0
350
129
  3
C1
350
12A
  3
C2
350
12B
  3
C3
350
12C
  3
C4
350
12D
  3
C5
350
12E
  3
C6
350
12F
  3
C7
350
130
  3
C8
350
131
  3
C9
350
132
  3
D0
350
133
  3
D1
350
134
  3
D2
350
135
  0
DICTIONARY
  5
34
102
{ACAD_REACTORS
330
C
102
}
330
C
100
AcDbDictionary
281
     1
  3
Standard
350
39
  0
DICTIONARY
  5
28
102
{ACAD_REACTORS
330
C
102
}
330
C
100
AcDbDictionary
281
     1
  3
2dWireframe
350
27
  3
3D Hidden
350
10B
  3
3dWireframe
350
10A
  3
Basic
350
109
  3
Brighten
350
10F
  3
ColorChange
350
113
  3
Conceptual
350
10C
  3
Dim
350
10E
  3
Facepattern
350
112
  3
Flat
350
105
  3
FlatWithEdges
350
106
  3
Gouraud
350
107
  3
GouraudWithEdges
350
108
  3
Linepattern
350
111
  3
Realistic
350
10D
  3
Thicken
350
110
  0
XRECORD
  5
170
102
{ACAD_REACTORS
330
C
102
}
330
C
100
AcDbXrecord
280
     1
 90
        1
330
39
  0
DICTIONARY
  5
EA
102
{ACAD_REACTORS
330
C
102
}
330
C
100
AcDbDictionary
281
     1
  3
CANNOSCALE
350
16A
  3
CMLEADERSTYLE
350
169
  3
CTABLESTYLE
350
EB
  3
DIMASSOC
350
16E
  3
HIDETEXT
350
16D
  3
INDEXCTL
350
16C
  3
SORTENTS
350
16B
  0
XRECORD
  5
171
102
{ACAD_REACTORS
330
C
102
}
330
C
100
AcDbXrecord
280
     1
  1
DWGPROPS COOKIE
  2

  3

  4

  6

  7

  8
AKhadoor
  9

300
=
301
=
302
=
303
=
304
=
305
=
306
=
307
=
308
=
309
=
 40
0.8722831828703704
 41
2449527.571155093
 42
2455086.595514398
  1

 90
        0
  0
DICTIONARY
  5
1A
102
{ACAD_REACTORS
330
19
102
}
330
19
100
AcDbDictionary
281
     1
  0
XRECORD
  5
9
102
{ACAD_REACTORS
330
8
102
}
330
8
100
AcDbXrecord
280
     1
290
     1
  0
XRECORD
  5
37
102
{ACAD_REACTORS
330
36
102
}
330
36
100
AcDbXrecord
280
     1
290
     1
  0
XRECORD
  5
C9
102
{ACAD_REACTORS
330
C8
102
}
330
C8
100
AcDbXrecord
280
     1
290
     1
  0
XRECORD
  5
5A
102
{ACAD_REACTORS
330
59
102
}
330
59
100
AcDbXrecord
280
     1
290
     1
  0
XRECORD
  5
4
102
{ACAD_REACTORS
330
3
102
}
330
3
100
AcDbXrecord
280
     1
340
2
  0
SORTENTSTABLE
  5
E8
102
{ACAD_REACTORS
330
3
102
}
330
3
100
AcDbSortentsTable
330
2
  0
XRECORD
  5
14
102
{ACAD_REACTORS
330
13
102
}
330
13
100
AcDbXrecord
280
     1
340
12
  0
LAYOUT
  5
17
102
{ACAD_XDICTIONARY
360
174
102
}
102
{ACAD_REACTORS
330
10
102
}
330
10
100
AcDbPlotSettings
  1

  2
None
  4

  6

 40
0.0
 41
0.0
 42
0.0
 43
0.0
 44
0.0
 45
0.0
 46
0.0
 47
0.0
 48
0.0
 49
0.0
140
0.0
141
0.0
142
1.0
143
1.0
 70
   688
 72
     0
 73
     0
 74
     5
  7
Ancon pen settings.ctb
 75
    16
147
1.0
148
0.0
149
0.0
100
AcDbLayout
  1
Layout1
 70
     1
 71
     1
 10
0.0
 20
0.0
 11
420.0
 21
297.0
 12
0.0
 22
0.0
 32
0.0
 14
1.000000000000000E+20
 24
1.000000000000000E+20
 34
1.000000000000000E+20
 15
-1.000000000000000E+20
 25
-1.000000000000000E+20
 35
-1.000000000000000E+20
146
0.0
 13
0.0
 23
0.0
 33
0.0
 16
1.0
 26
0.0
 36
0.0
 17
0.0
 27
1.0
 37
0.0
 76
     0
330
12
  0
LAYOUT
  5
F
102
{ACAD_XDICTIONARY
360
172
102
}
102
{ACAD_REACTORS
330
10
102
}
330
10
100
AcDbPlotSettings
  1

  2
none_device
  4
Letter_(8.50_x_11.00_Inches)
  6

 40
6.349999904632568
 41
6.349999904632568
 42
6.350006103515625
 43
6.350006103515625
 44
215.8999938964844
 45
279.3999938964844
 46
0.0
 47
0.0
 48
0.0
 49
0.0
140
0.0
141
0.0
142
1.0
143
190.4825914125939
 70
 11952
 72
     0
 73
     1
 74
     0
  7
Ancon pen settings.ctb
 75
     0
147
0.005249823580119
148
-187605.733827711
149
104251.2692448299
100
AcDbLayout
  1
Model
 70
     1
 71
     0
 10
0.0
 20
0.0
 11
12.0
 21
9.0
 12
0.0
 22
0.0
 32
0.0
 14
0.0
 24
0.0
 34
0.0
 15
0.0
 25
0.0
 35
0.0
146
0.0
 13
0.0
 23
0.0
 33
0.0
 16
1.0
 26
0.0
 36
0.0
 17
0.0
 27
1.0
 37
0.0
 76
     0
330
2
331
24
1001
ACAD_PSEXT
1000
None
1000
None
1000
Not applicable
1000
The layout will not be plotted unless a new plotter configuration name is selected.
1070
     0
  0
MATERIAL
  5
F5
102
{ACAD_XDICTIONARY
360
F6
102
}
102
{ACAD_REACTORS
330
32
102
}
330
32
100
AcDbMaterial
  1
ByBlock
 72
     0
 43
0.0208333333333333
 43
0.0
 43
0.0
 43
0.0
 43
0.0
 43
0.0208333333333333
 43
0.0
 43
0.0
 43
0.0
 43
0.0
 43
1.0
 43
0.0
 43
0.0
 43
0.0
 43
0.0
 43
1.0
 77
     0
 47
0.0208333333333333
 47
0.0
 47
0.0
 47
0.0
 47
0.0
 47
0.0208333333333333
 47
0.0
 47
0.0
 47
0.0
 47
0.0
 47
1.0
 47
0.0
 47
0.0
 47
0.0
 47
0.0
 47
1.0
171
     0
 49
0.0208333333333333
 49
0.0
 49
0.0
 49
0.0
 49
0.0
 49
0.0208333333333333
 49
0.0
 49
0.0
 49
0.0
 49
0.0
 49
1.0
 49
0.0
 49
0.0
 49
0.0
 49
0.0
 49
1.0
175
     0
142
0.0208333333333333
142
0.0
142
0.0
142
0.0
142
0.0
142
0.0208333333333333
142
0.0
142
0.0
142
0.0
142
0.0
142
1.0
142
0.0
142
0.0
142
0.0
142
0.0
142
1.0
179
     0
144
0.0208333333333333
144
0.0
144
0.0
144
0.0
144
0.0
144
0.0208333333333333
144
0.0
144
0.0
144
0.0
144
0.0
144
1.0
144
0.0
144
0.0
144
0.0
144
0.0
144
1.0
147
0.0208333333333333
147
0.0
147
0.0
147
0.0
147
0.0
147
0.0208333333333333
147
0.0
147
0.0
147
0.0
147
0.0
147
1.0
147
0.0
147
0.0
147
0.0
147
0.0
147
1.0
  0
MATERIAL
  5
ED
102
{ACAD_XDICTIONARY
360
EE
102
}
102
{ACAD_REACTORS
330
32
102
}
330
32
100
AcDbMaterial
  1
ByLayer
 72
     0
 43
0.0208333333333333
 43
0.0
 43
0.0
 43
0.0
 43
0.0
 43
0.0208333333333333
 43
0.0
 43
0.0
 43
0.0
 43
0.0
 43
1.0
 43
0.0
 43
0.0
 43
0.0
 43
0.0
 43
1.0
 77
     0
 47
0.0208333333333333
 47
0.0
 47
0.0
 47
0.0
 47
0.0
 47
0.0208333333333333
 47
0.0
 47
0.0
 47
0.0
 47
0.0
 47
1.0
 47
0.0
 47
0.0
 47
0.0
 47
0.0
 47
1.0
171
     0
 49
0.0208333333333333
 49
0.0
 49
0.0
 49
0.0
 49
0.0
 49
0.0208333333333333
 49
0.0
 49
0.0
 49
0.0
 49
0.0
 49
1.0
 49
0.0
 49
0.0
 49
0.0
 49
0.0
 49
1.0
175
     0
142
0.0208333333333333
142
0.0
142
0.0
142
0.0
142
0.0
142
0.0208333333333333
142
0.0
142
0.0
142
0.0
142
0.0
142
1.0
142
0.0
142
0.0
142
0.0
142
0.0
142
1.0
179
     0
144
0.0208333333333333
144
0.0
144
0.0
144
0.0
144
0.0
144
0.0208333333333333
144
0.0
144
0.0
144
0.0
144
0.0
144
1.0
144
0.0
144
0.0
144
0.0
144
0.0
144
1.0
147
0.0208333333333333
147
0.0
147
0.0
147
0.0
147
0.0
147
0.0208333333333333
147
0.0
147
0.0
147
0.0
147
0.0
147
1.0
147
0.0
147
0.0
147
0.0
147
0.0
147
1.0
  0
MATERIAL
  5
FD
102
{ACAD_XDICTIONARY
360
FE
102
}
102
{ACAD_REACTORS
330
32
102
}
330
32
100
AcDbMaterial
  1
Global
 72
     0
 43
0.0208333333333333
 43
0.0
 43
0.0
 43
0.0
 43
0.0
 43
0.0208333333333333
 43
0.0
 43
0.0
 43
0.0
 43
0.0
 43
1.0
 43
0.0
 43
0.0
 43
0.0
 43
0.0
 43
1.0
 77
     0
 47
0.0208333333333333
 47
0.0
 47
0.0
 47
0.0
 47
0.0
 47
0.0208333333333333
 47
0.0
 47
0.0
 47
0.0
 47
0.0
 47
1.0
 47
0.0
 47
0.0
 47
0.0
 47
0.0
 47
1.0
171
     0
 49
0.0208333333333333
 49
0.0
 49
0.0
 49
0.0
 49
0.0
 49
0.0208333333333333
 49
0.0
 49
0.0
 49
0.0
 49
0.0
 49
1.0
 49
0.0
 49
0.0
 49
0.0
 49
0.0
 49
1.0
175
     0
142
0.0208333333333333
142
0.0
142
0.0
142
0.0
142
0.0
142
0.0208333333333333
142
0.0
142
0.0
142
0.0
142
0.0
142
1.0
142
0.0
142
0.0
142
0.0
142
0.0
142
1.0
179
     0
144
0.0208333333333333
144
0.0
144
0.0
144
0.0
144
0.0
144
0.0208333333333333
144
0.0
144
0.0
144
0.0
144
0.0
144
1.0
144
0.0
144
0.0
144
0.0
144
0.0
144
1.0
147
0.0208333333333333
147
0.0
147
0.0
147
0.0
147
0.0
147
0.0208333333333333
147
0.0
147
0.0
147
0.0
147
0.0
147
1.0
147
0.0
147
0.0
147
0.0
147
0.0
147
1.0
  0
MLEADERSTYLE
  5
137
102
{ACAD_REACTORS
330
136
102
}
330
136
100
AcDbMLeaderStyle
170
     2
171
     1
172
     0
 90
        2
 40
0.0
 41
0.0
173
     1
 91
-1056964608
340
1F
 92
       -2
290
     1
 42
0.09
291
     1
 43
0.36
  3
Standard
 44
0.18
300

342
1C
174
     1
178
     6
175
     1
176
     0
 93
-1056964608
 45
0.18
292
     0
297
     0
 46
0.18
 94
-1056964608
 47
1.0
 49
1.0
140
1.0
293
     1
141
0.0
294
     1
177
     0
142
1.0
295
     0
296
     0
143
0.125
1001
ACAD_MLEADERVER
1070
     2
  0
MLINESTYLE
  5
38
102
{ACAD_REACTORS
330
30
102
}
330
30
100
AcDbMlineStyle
  2
STANDARD
 70
     0
  3

 62
   256
 51
90.0
 52
90.0
 71
     2
 49
0.5
 62
   256
  6
BYLAYER
 49
-0.5
 62
   256
  6
BYLAYER
  0
ACDBPLACEHOLDER
  5
A
102
{ACAD_REACTORS
330
B
102
}
330
B
  0
SCALE
  5
115
102
{ACAD_REACTORS
330
114
102
}
330
114
100
AcDbScale
 70
     0
300
1:1
140
1.0
141
1.0
290
     1
  0
SCALE
  5
116
102
{ACAD_REACTORS
330
114
102
}
330
114
100
AcDbScale
 70
     0
300
1:2
140
1.0
141
2.0
290
     0
  0
SCALE
  5
117
102
{ACAD_REACTORS
330
114
102
}
330
114
100
AcDbScale
 70
     0
300
1:4
140
1.0
141
4.0
290
     0
  0
SCALE
  5
118
102
{ACAD_REACTORS
330
114
102
}
330
114
100
AcDbScale
 70
     0
300
1:5
140
1.0
141
5.0
290
     0
  0
SCALE
  5
119
102
{ACAD_REACTORS
330
114
102
}
330
114
100
AcDbScale
 70
     0
300
1:8
140
1.0
141
8.0
290
     0
  0
SCALE
  5
11A
102
{ACAD_REACTORS
330
114
102
}
330
114
100
AcDbScale
 70
     0
300
1:10
140
1.0
141
10.0
290
     0
  0
SCALE
  5
11B
102
{ACAD_REACTORS
330
114
102
}
330
114
100
AcDbScale
 70
     0
300
1:16
140
1.0
141
16.0
290
     0
  0
SCALE
  5
11C
102
{ACAD_REACTORS
330
114
102
}
330
114
100
AcDbScale
 70
     0
300
1:20
140
1.0
141
20.0
290
     0
  0
SCALE
  5
11D
102
{ACAD_REACTORS
330
114
102
}
330
114
100
AcDbScale
 70
     0
300
1:30
140
1.0
141
30.0
290
     0
  0
SCALE
  5
11E
102
{ACAD_REACTORS
330
114
102
}
330
114
100
AcDbScale
 70
     0
300
1:40
140
1.0
141
40.0
290
     0
  0
SCALE
  5
11F
102
{ACAD_REACTORS
330
114
102
}
330
114
100
AcDbScale
 70
     0
300
1:50
140
1.0
141
50.0
290
     0
  0
SCALE
  5
120
102
{ACAD_REACTORS
330
114
102
}
330
114
100
AcDbScale
 70
     0
300
1:100
140
1.0
141
100.0
290
     0
  0
SCALE
  5
121
102
{ACAD_REACTORS
330
114
102
}
330
114
100
AcDbScale
 70
     0
300
2:1
140
2.0
141
1.0
290
     0
  0
SCALE
  5
122
102
{ACAD_REACTORS
330
114
102
}
330
114
100
AcDbScale
 70
     0
300
4:1
140
4.0
141
1.0
290
     0
  0
SCALE
  5
123
102
{ACAD_REACTORS
330
114
102
}
330
114
100
AcDbScale
 70
     0
300
8:1
140
8.0
141
1.0
290
     0
  0
SCALE
  5
124
102
{ACAD_REACTORS
330
114
102
}
330
114
100
AcDbScale
 70
     0
300
10:1
140
10.0
141
1.0
290
     0
  0
SCALE
  5
125
102
{ACAD_REACTORS
330
114
102
}
330
114
100
AcDbScale
 70
     0
300
100:1
140
100.0
141
1.0
290
     0
  0
SCALE
  5
126
102
{ACAD_REACTORS
330
114
102
}
330
114
100
AcDbScale
 70
     0
300
1/128" = 1'-0"
140
0.0078125
141
12.0
290
     0
  0
SCALE
  5
127
102
{ACAD_REACTORS
330
114
102
}
330
114
100
AcDbScale
 70
     0
300
1/64" = 1'-0"
140
0.015625
141
12.0
290
     0
  0
SCALE
  5
128
102
{ACAD_REACTORS
330
114
102
}
330
114
100
AcDbScale
 70
     0
300
1/32" = 1'-0"
140
0.03125
141
12.0
290
     0
  0
SCALE
  5
129
102
{ACAD_REACTORS
330
114
102
}
330
114
100
AcDbScale
 70
     0
300
1/16" = 1'-0"
140
0.0625
141
12.0
290
     0
  0
SCALE
  5
12A
102
{ACAD_REACTORS
330
114
102
}
330
114
100
AcDbScale
 70
     0
300
3/32" = 1'-0"
140
0.09375
141
12.0
290
     0
  0
SCALE
  5
12B
102
{ACAD_REACTORS
330
114
102
}
330
114
100
AcDbScale
 70
     0
300
1/8" = 1'-0"
140
0.125
141
12.0
290
     0
  0
SCALE
  5
12C
102
{ACAD_REACTORS
330
114
102
}
330
114
100
AcDbScale
 70
     0
300
3/16" = 1'-0"
140
0.1875
141
12.0
290
     0
  0
SCALE
  5
12D
102
{ACAD_REACTORS
330
114
102
}
330
114
100
AcDbScale
 70
     0
300
1/4" = 1'-0"
140
0.25
141
12.0
290
     0
  0
SCALE
  5
12E
102
{ACAD_REACTORS
330
114
102
}
330
114
100
AcDbScale
 70
     0
300
3/8" = 1'-0"
140
0.375
141
12.0
290
     0
  0
SCALE
  5
12F
102
{ACAD_REACTORS
330
114
102
}
330
114
100
AcDbScale
 70
     0
300
1/2" = 1'-0"
140
0.5
141
12.0
290
     0
  0
SCALE
  5
130
102
{ACAD_REACTORS
330
114
102
}
330
114
100
AcDbScale
 70
     0
300
3/4" = 1'-0"
140
0.75
141
12.0
290
     0
  0
SCALE
  5
131
102
{ACAD_REACTORS
330
114
102
}
330
114
100
AcDbScale
 70
     0
300
1" = 1'-0"
140
1.0
141
12.0
290
     0
  0
SCALE
  5
132
102
{ACAD_REACTORS
330
114
102
}
330
114
100
AcDbScale
 70
     0
300
1-1/2" = 1'-0"
140
1.5
141
12.0
290
     0
  0
SCALE
  5
133
102
{ACAD_REACTORS
330
114
102
}
330
114
100
AcDbScale
 70
     0
300
3" = 1'-0"
140
3.0
141
12.0
290
     0
  0
SCALE
  5
134
102
{ACAD_REACTORS
330
114
102
}
330
114
100
AcDbScale
 70
     0
300
6" = 1'-0"
140
6.0
141
12.0
290
     0
  0
SCALE
  5
135
102
{ACAD_REACTORS
330
114
102
}
330
114
100
AcDbScale
 70
     0
300
1'-0" = 1'-0"
140
12.0
141
12.0
290
     0
  0
TABLESTYLE
  5
39
102
{ACAD_XDICTIONARY
360
3A
102
}
102
{ACAD_REACTORS
330
34
102
}
330
34
100
AcDbTableStyle
  3
Standard
 70
     0
 71
     0
 40
0.06
 41
0.06
280
     0
281
     0
  7
STANDARD
140
0.18
170
     2
 62
     0
 63
     7
283
     0
274
    -2
284
     1
 64
     0
275
    -2
285
     1
 65
     0
276
    -2
286
     1
 66
     0
277
    -2
287
     1
 67
     0
278
    -2
288
     1
 68
     0
279
    -2
289
     1
 69
     0
  7
STANDARD
140
0.25
170
     5
 62
     0
 63
     7
283
     0
274
    -2
284
     1
 64
     0
275
    -2
285
     1
 65
     0
276
    -2
286
     1
 66
     0
277
    -2
287
     1
 67
     0
278
    -2
288
     1
 68
     0
279
    -2
289
     1
 69
     0
  7
STANDARD
140
0.18
170
     5
 62
     0
 63
     7
283
     0
274
    -2
284
     1
 64
     0
275
    -2
285
     1
 65
     0
276
    -2
286
     1
 66
     0
277
    -2
287
     1
 67
     0
278
    -2
288
     1
 68
     0
279
    -2
289
     1
 69
     0
  0
VISUALSTYLE
  5
27
102
{ACAD_REACTORS
330
28
102
}
330
28
100
AcDbVisualStyle
  2
2dWireframe
 70
     4
 71
     0
 72
     2
 73
     0
 90
        0
 40
-0.6
 41
-30.0
 62
     5
 63
     7
 74
     1
 91
        4
 64
     7
 65
   257
 75
     1
175
     1
 42
1.0
 92
        0
 66
   257
 43
1.0
 76
     1
 77
     6
 78
     2
 67
     7
 79
     5
170
     0
171
     0
290
     0
174
     0
 93
        1
 44
0.0
173
     0
291
     0
 45
0.0
1001
ACAD
1000
AcDbSavedByObjectVersion
1070
     0
  0
VISUALSTYLE
  5
10B
102
{ACAD_REACTORS
330
28
102
}
330
28
100
AcDbVisualStyle
  2
3D Hidden
 70
     6
 71
     1
 72
     2
 73
     2
 90
        0
 40
-0.6
 41
-30.0
 62
     5
 63
     7
 74
     2
 91
        2
 64
     7
 65
   257
 75
     2
175
     1
 42
40.0
 92
        0
 66
   257
 43
1.0
 76
     1
 77
     6
 78
     2
 67
     7
 79
     3
170
     0
171
     0
290
     0
174
     0
 93
        1
 44
0.0
173
     0
291
     0
 45
0.0
1001
ACAD
1000
AcDbSavedByObjectVersion
1070
     0
  0
VISUALSTYLE
  5
10A
102
{ACAD_REACTORS
330
28
102
}
330
28
100
AcDbVisualStyle
  2
3dWireframe
 70
     5
 71
     0
 72
     2
 73
     0
 90
        0
 40
-0.6
 41
-30.0
 62
     5
 63
     7
 74
     1
 91
        4
 64
     7
 65
   257
 75
     1
175
     1
 42
1.0
 92
        0
 66
   257
 43
1.0
 76
     1
 77
     6
 78
     2
 67
     7
 79
     5
170
     0
171
     0
290
     0
174
     0
 93
        1
 44
0.0
173
     0
291
     0
 45
0.0
1001
ACAD
1000
AcDbSavedByObjectVersion
1070
     0
  0
VISUALSTYLE
  5
109
102
{ACAD_REACTORS
330
28
102
}
330
28
100
AcDbVisualStyle
  2
Basic
 70
     7
 71
     1
 72
     0
 73
     1
 90
        0
 40
-0.6
 41
-30.0
 62
     5
 63
     7
 74
     0
 91
        4
 64
     7
 65
   257
 75
     1
175
     1
 42
1.0
 92
        8
 66
     7
 43
1.0
 76
     1
 77
     6
 78
     2
 67
     7
 79
     5
170
     0
171
     0
290
     0
174
     0
 93
        1
 44
0.0
173
     0
291
     1
 45
0.0
1001
ACAD
1000
AcDbSavedByObjectVersion
1070
     0
  0
VISUALSTYLE
  5
10F
102
{ACAD_REACTORS
330
28
102
}
330
28
100
AcDbVisualStyle
  2
Brighten
 70
    12
 71
     2
 72
     2
 73
     0
 90
        0
 40
-0.6
 41
-30.0
 62
     5
 63
     7
 74
     1
 91
        4
 64
     7
 65
   257
 75
     1
175
     1
 42
1.0
 92
        8
 66
     7
 43
1.0
 76
     1
 77
     6
 78
     2
 67
     7
 79
     5
170
     0
171
     0
290
     0
174
     0
 93
        1
 44
50.0
173
     0
291
     1
 45
0.0
1001
ACAD
1000
AcDbSavedByObjectVersion
1070
     0
  0
VISUALSTYLE
  5
113
102
{ACAD_REACTORS
330
28
102
}
330
28
100
AcDbVisualStyle
  2
ColorChange
 70
    16
 71
     2
 72
     2
 73
     3
 90
        0
 40
-0.6
 41
-30.0
 62
     5
 63
     8
 74
     1
 91
        4
 64
     7
 65
   257
 75
     1
175
     1
 42
1.0
 92
        8
 66
     8
 43
1.0
 76
     1
 77
     6
 78
     2
 67
     7
 79
     5
170
     0
171
     0
290
     0
174
     0
 93
        1
 44
0.0
173
     0
291
     1
 45
0.0
1001
ACAD
1000
AcDbSavedByObjectVersion
1070
     0
  0
VISUALSTYLE
  5
10C
102
{ACAD_REACTORS
330
28
102
}
330
28
100
AcDbVisualStyle
  2
Conceptual
 70
     9
 71
     3
 72
     2
 73
     0
 90
        0
 40
-0.6
 41
-30.0
 62
     5
 63
     7
 74
     2
 91
        2
 64
     7
 65
   257
 75
     1
175
     1
 42
40.0
 92
        8
 66
     7
 43
1.0
 76
     1
 77
     6
 78
     2
 67
     7
 79
     3
170
     0
171
     0
290
     0
174
     0
 93
        1
 44
0.0
173
     0
291
     0
 45
0.0
1001
ACAD
1000
AcDbSavedByObjectVersion
1070
     0
  0
VISUALSTYLE
  5
10E
102
{ACAD_REACTORS
330
28
102
}
330
28
100
AcDbVisualStyle
  2
Dim
 70
    11
 71
     2
 72
     2
 73
     0
 90
        0
 40
-0.6
 41
-30.0
 62
     5
 63
     7
 74
     1
 91
        4
 64
     7
 65
   257
 75
     1
175
     1
 42
1.0
 92
        8
 66
     7
 43
1.0
 76
     1
 77
     6
 78
     2
 67
     7
 79
     5
170
     0
171
     0
290
     0
174
     0
 93
        1
 44
-50.0
173
     0
291
     1
 45
0.0
1001
ACAD
1000
AcDbSavedByObjectVersion
1070
     0
  0
VISUALSTYLE
  5
112
102
{ACAD_REACTORS
330
28
102
}
330
28
100
AcDbVisualStyle
  2
Facepattern
 70
    15
 71
     2
 72
     2
 73
     0
 90
        0
 40
-0.6
 41
-30.0
 62
     5
 63
     7
 74
     1
 91
        4
 64
     7
 65
   257
 75
     1
175
     1
 42
1.0
 92
        8
 66
     7
 43
1.0
 76
     1
 77
     6
 78
     2
 67
     7
 79
     5
170
     0
171
     0
290
     0
174
     0
 93
        1
 44
0.0
173
     0
291
     1
 45
0.0
1001
ACAD
1000
AcDbSavedByObjectVersion
1070
     0
  0
VISUALSTYLE
  5
105
102
{ACAD_REACTORS
330
28
102
}
330
28
100
AcDbVisualStyle
  2
Flat
 70
     0
 71
     2
 72
     1
 73
     1
 90
        2
 40
-0.6
 41
30.0
 62
     5
 63
     7
 74
     0
 91
        4
 64
     7
 65
   257
 75
     1
175
     1
 42
1.0
 92
        8
 66
     7
 43
1.0
 76
     1
 77
     6
 78
     2
 67
     7
 79
     5
170
     0
171
     0
290
     0
174
     0
 93
       13
 44
0.0
173
     0
291
     1
 45
0.0
1001
ACAD
1000
AcDbSavedByObjectVersion
1070
     0
  0
VISUALSTYLE
  5
106
102
{ACAD_REACTORS
330
28
102
}
330
28
100
AcDbVisualStyle
  2
FlatWithEdges
 70
     1
 71
     2
 72
     1
 73
     1
 90
        2
 40
-0.6
 41
30.0
 62
     5
 63
     7
 74
     1
 91
        4
 64
     7
 65
   257
 75
     1
175
     1
 42
1.0
 92
        0
 66
   257
 43
1.0
 76
     1
 77
     6
 78
     2
 67
     7
 79
     5
170
     0
171
     0
290
     0
174
     0
 93
       13
 44
0.0
173
     0
291
     1
 45
0.0
1001
ACAD
1000
AcDbSavedByObjectVersion
1070
     0
  0
VISUALSTYLE
  5
107
102
{ACAD_REACTORS
330
28
102
}
330
28
100
AcDbVisualStyle
  2
Gouraud
 70
     2
 71
     2
 72
     2
 73
     1
 90
        2
 40
-0.6
 41
30.0
 62
     5
 63
     7
 74
     0
 91
        4
 64
     7
 65
   257
 75
     1
175
     1
 42
1.0
 92
        0
 66
     7
 43
1.0
 76
     1
 77
     6
 78
     2
 67
     7
 79
     5
170
     0
171
     0
290
     0
174
     0
 93
       13
 44
0.0
173
     0
291
     1
 45
0.0
1001
ACAD
1000
AcDbSavedByObjectVersion
1070
     0
  0
VISUALSTYLE
  5
108
102
{ACAD_REACTORS
330
28
102
}
330
28
100
AcDbVisualStyle
  2
GouraudWithEdges
 70
     3
 71
     2
 72
     2
 73
     1
 90
        2
 40
-0.6
 41
30.0
 62
     5
 63
     7
 74
     1
 91
        4
 64
     7
 65
   257
 75
     1
175
     1
 42
1.0
 92
        0
 66
   257
 43
1.0
 76
     1
 77
     6
 78
     2
 67
     7
 79
     5
170
     0
171
     0
290
     0
174
     0
 93
       13
 44
0.0
173
     0
291
     1
 45
0.0
1001
ACAD
1000
AcDbSavedByObjectVersion
1070
     0
  0
VISUALSTYLE
  5
111
102
{ACAD_REACTORS
330
28
102
}
330
28
100
AcDbVisualStyle
  2
Linepattern
 70
    14
 71
     2
 72
     2
 73
     0
 90
        0
 40
-0.6
 41
-30.0
 62
     5
 63
     7
 74
     1
 91
        4
 64
     7
 65
   257
 75
     7
175
     7
 42
1.0
 92
        8
 66
     7
 43
1.0
 76
     1
 77
     6
 78
     2
 67
     7
 79
     5
170
     0
171
     0
290
     0
174
     0
 93
        1
 44
0.0
173
     0
291
     1
 45
0.0
1001
ACAD
1000
AcDbSavedByObjectVersion
1070
     0
  0
VISUALSTYLE
  5
10D
102
{ACAD_REACTORS
330
28
102
}
330
28
100
AcDbVisualStyle
  2
Realistic
 70
     8
 71
     2
 72
     2
 73
     0
 90
        0
 40
-0.6
 41
-30.0
 62
     5
 63
     7
 74
     1
 91
        0
 64
     7
 65
   257
 75
     1
175
     1
 42
1.0
 92
        8
 66
     8
 43
1.0
 76
     1
 77
     6
 78
     2
 67
     7
 79
     5
170
     0
171
     0
290
     0
174
     0
 93
       13
 44
0.0
173
     0
291
     0
 45
0.0
1001
ACAD
1000
AcDbSavedByObjectVersion
1070
     0
  0
VISUALSTYLE
  5
110
102
{ACAD_REACTORS
330
28
102
}
330
28
100
AcDbVisualStyle
  2
Thicken
 70
    13
 71
     2
 72
     2
 73
     0
 90
        0
 40
-0.6
 41
-30.0
 62
     5
 63
     7
 74
     1
 91
        4
 64
     7
 65
   257
 75
     1
175
     1
 42
1.0
 92
       12
 66
     7
 43
1.0
 76
     1
 77
     6
 78
     2
 67
     7
 79
     5
170
     0
171
     0
290
     0
174
     0
 93
        1
 44
0.0
173
     0
291
     1
 45
0.0
1001
ACAD
1000
AcDbSavedByObjectVersion
1070
     0
  0
DICTIONARYVAR
  5
16A
102
{ACAD_REACTORS
330
EA
102
}
330
EA
100
DictionaryVariables
280
     0
  1
1:1
  0
DICTIONARYVAR
  5
169
102
{ACAD_REACTORS
330
EA
102
}
330
EA
100
DictionaryVariables
280
     0
  1
STANDARD
  0
DICTIONARYVAR
  5
EB
102
{ACAD_REACTORS
330
EA
102
}
330
EA
100
DictionaryVariables
280
     0
  1
STANDARD
  0
DICTIONARYVAR
  5
16E
102
{ACAD_REACTORS
330
EA
102
}
330
EA
100
DictionaryVariables
280
     0
  1
1
  0
DICTIONARYVAR
  5
16D
102
{ACAD_REACTORS
330
EA
102
}
330
EA
100
DictionaryVariables
280
     0
  1
1
  0
DICTIONARYVAR
  5
16C
102
{ACAD_REACTORS
330
EA
102
}
330
EA
100
DictionaryVariables
280
     0
  1
0
  0
DICTIONARYVAR
  5
16B
102
{ACAD_REACTORS
330
EA
102
}
330
EA
100
DictionaryVariables
280
     0
  1
127
  0
DICTIONARY
  5
174
330
17
100
AcDbDictionary
280
     1
281
     1
  3
ACAD_XREC_ROUNDTRIP
360
175
  0
DICTIONARY
  5
172
330
F
100
AcDbDictionary
280
     1
281
     1
  3
ACAD_XREC_ROUNDTRIP
360
173
  0
DICTIONARY
  5
F6
330
F5
100
AcDbDictionary
280
     1
281
     1
  3
ACAD_XREC_ROUNDTRIP
360
178
  3
BUMPTILE
360
F8
  3
DIFFUSETILE
360
F7
  3
OPACITYTILE
360
FB
  3
REFLECTIONTILE
360
FA
  3
REFRACTIONTILE
360
FC
  3
SPECULARTILE
360
F9
  0
DICTIONARY
  5
EE
330
ED
100
AcDbDictionary
280
     1
281
     1
  3
ACAD_XREC_ROUNDTRIP
360
177
  3
BUMPTILE
360
F0
  3
DIFFUSETILE
360
EF
  3
OPACITYTILE
360
F3
  3
REFLECTIONTILE
360
F2
  3
REFRACTIONTILE
360
F4
  3
SPECULARTILE
360
F1
  0
DICTIONARY
  5
FE
330
FD
100
AcDbDictionary
280
     1
281
     1
  3
ACAD_XREC_ROUNDTRIP
360
179
  3
BUMPTILE
360
100
  3
DIFFUSETILE
360
FF
  3
OPACITYTILE
360
103
  3
REFLECTIONTILE
360
102
  3
REFRACTIONTILE
360
104
  3
SPECULARTILE
360
101
  0
DICTIONARY
  5
3A
330
39
100
AcDbDictionary
280
     1
281
     1
  3
ACAD_ROUNDTRIP_2008_TABLESTYLE_CELLSTYLEMAP
360
16F
  3
ACAD_XREC_ROUNDTRIP
360
176
  0
XRECORD
  5
175
102
{ACAD_REACTORS
330
174
102
}
330
174
100
AcDbXrecord
280
     1
102
SHADEPLOT
 70
     0
102
SHADEPLOTRESLEVEL
 70
     2
102
SHADEPLOTCUSTOMDPI
 70
   300
  0
XRECORD
  5
173
102
{ACAD_REACTORS
330
172
102
}
330
172
100
AcDbXrecord
280
     1
102
SHADEPLOT
 70
     0
102
SHADEPLOTRESLEVEL
 70
     2
102
SHADEPLOTCUSTOMDPI
 70
   300
  0
XRECORD
  5
178
102
{ACAD_REACTORS
330
F6
102
}
330
F6
100
AcDbXrecord
280
     1
102
MATERIAL
148
0.0
149
0.0
149
0.0
 93
        0
 94
      127
282
     0
 72
     0
 77
     0
171
     0
175
     0
179
     0
273
     0
  0
XRECORD
  5
F8
102
{ACAD_REACTORS
330
F6
102
}
330
F6
100
AcDbXrecord
280
     1
270
     1
271
     1
  0
XRECORD
  5
F7
102
{ACAD_REACTORS
330
F6
102
}
330
F6
100
AcDbXrecord
280
     1
270
     1
271
     1
  0
XRECORD
  5
FB
102
{ACAD_REACTORS
330
F6
102
}
330
F6
100
AcDbXrecord
280
     1
270
     1
271
     1
  0
XRECORD
  5
FA
102
{ACAD_REACTORS
330
F6
102
}
330
F6
100
AcDbXrecord
280
     1
270
     1
271
     1
  0
XRECORD
  5
FC
102
{ACAD_REACTORS
330
F6
102
}
330
F6
100
AcDbXrecord
280
     1
270
     1
271
     1
  0
XRECORD
  5
F9
102
{ACAD_REACTORS
330
F6
102
}
330
F6
100
AcDbXrecord
280
     1
270
     1
271
     1
  0
XRECORD
  5
177
102
{ACAD_REACTORS
330
EE
102
}
330
EE
100
AcDbXrecord
280
     1
102
MATERIAL
148
0.0
149
0.0
149
0.0
 93
        0
 94
      127
282
     0
 72
     0
 77
     0
171
     0
175
     0
179
     0
273
     0
  0
XRECORD
  5
F0
102
{ACAD_REACTORS
330
EE
102
}
330
EE
100
AcDbXrecord
280
     1
270
     1
271
     1
  0
XRECORD
  5
EF
102
{ACAD_REACTORS
330
EE
102
}
330
EE
100
AcDbXrecord
280
     1
270
     1
271
     1
  0
XRECORD
  5
F3
102
{ACAD_REACTORS
330
EE
102
}
330
EE
100
AcDbXrecord
280
     1
270
     1
271
     1
  0
XRECORD
  5
F2
102
{ACAD_REACTORS
330
EE
102
}
330
EE
100
AcDbXrecord
280
     1
270
     1
271
     1
  0
XRECORD
  5
F4
102
{ACAD_REACTORS
330
EE
102
}
330
EE
100
AcDbXrecord
280
     1
270
     1
271
     1
  0
XRECORD
  5
F1
102
{ACAD_REACTORS
330
EE
102
}
330
EE
100
AcDbXrecord
280
     1
270
     1
271
     1
  0
XRECORD
  5
179
102
{ACAD_REACTORS
330
FE
102
}
330
FE
100
AcDbXrecord
280
     1
102
MATERIAL
148
0.0
149
0.0
149
0.0
 93
        0
 94
      127
282
     0
 72
     0
 77
     0
171
     0
175
     0
179
     0
273
     0
  0
XRECORD
  5
100
102
{ACAD_REACTORS
330
FE
102
}
330
FE
100
AcDbXrecord
280
     1
270
     1
271
     1
  0
XRECORD
  5
FF
102
{ACAD_REACTORS
330
FE
102
}
330
FE
100
AcDbXrecord
280
     1
270
     1
271
     1
  0
XRECORD
  5
103
102
{ACAD_REACTORS
330
FE
102
}
330
FE
100
AcDbXrecord
280
     1
270
     1
271
     1
  0
XRECORD
  5
102
102
{ACAD_REACTORS
330
FE
102
}
330
FE
100
AcDbXrecord
280
     1
270
     1
271
     1
  0
XRECORD
  5
104
102
{ACAD_REACTORS
330
FE
102
}
330
FE
100
AcDbXrecord
280
     1
270
     1
271
     1
  0
XRECORD
  5
101
102
{ACAD_REACTORS
330
FE
102
}
330
FE
100
AcDbXrecord
280
     1
270
     1
271
     1
  0
CELLSTYLEMAP
  5
16F
102
{ACAD_REACTORS
330
3A
102
}
330
3A
100
AcDbCellStyleMap
 90
        3
300
CELLSTYLE
  1
TABLEFORMAT_BEGIN
 90
        5
170
     1
 91
        0
 92
    32768
 62
   257
 93
        1
300
CONTENTFORMAT
  1
CONTENTFORMAT_BEGIN
 90
        0
 91
        0
 92
        4
 93
        0
300

 40
0.0
140
1.0
 94
        5
 62
     0
340
1C
144
0.25
309
CONTENTFORMAT_END
171
     1
301
MARGIN
  1
CELLMARGIN_BEGIN
 40
0.06
 40
0.06
 40
0.06
 40
0.06
 40
0.18
 40
0.18
309
CELLMARGIN_END
 94
        6
 95
        1
302
GRIDFORMAT
  1
GRIDFORMAT_BEGIN
 90
        0
 91
        1
 62
     0
 92
       -2
340
0
 93
        0
 40
0.045
309
GRIDFORMAT_END
 95
        2
302
GRIDFORMAT
  1
GRIDFORMAT_BEGIN
 90
        0
 91
        1
 62
     0
 92
       -2
340
0
 93
        0
 40
0.045
309
GRIDFORMAT_END
 95
        4
302
GRIDFORMAT
  1
GRIDFORMAT_BEGIN
 90
        0
 91
        1
 62
     0
 92
       -2
340
0
 93
        0
 40
0.045
309
GRIDFORMAT_END
 95
        8
302
GRIDFORMAT
  1
GRIDFORMAT_BEGIN
 90
        0
 91
        1
 62
     0
 92
       -2
340
0
 93
        0
 40
0.045
309
GRIDFORMAT_END
 95
       16
302
GRIDFORMAT
  1
GRIDFORMAT_BEGIN
 90
        0
 91
        1
 62
     0
 92
       -2
340
0
 93
        0
 40
0.045
309
GRIDFORMAT_END
 95
       32
302
GRIDFORMAT
  1
GRIDFORMAT_BEGIN
 90
        0
 91
        1
 62
     0
 92
       -2
340
0
 93
        0
 40
0.045
309
GRIDFORMAT_END
309
TABLEFORMAT_END
  1
CELLSTYLE_BEGIN
 90
        1
 91
        1
300
_TITLE
309
CELLSTYLE_END
300
CELLSTYLE
  1
TABLEFORMAT_BEGIN
 90
        5
170
     1
 91
        0
 92
        0
 62
   257
 93
        1
300
CONTENTFORMAT
  1
CONTENTFORMAT_BEGIN
 90
        0
 91
        0
 92
        4
 93
        0
300

 40
0.0
140
1.0
 94
        5
 62
     0
340
1C
144
0.18
309
CONTENTFORMAT_END
171
     1
301
MARGIN
  1
CELLMARGIN_BEGIN
 40
0.06
 40
0.06
 40
0.06
 40
0.06
 40
0.18
 40
0.18
309
CELLMARGIN_END
 94
        6
 95
        1
302
GRIDFORMAT
  1
GRIDFORMAT_BEGIN
 90
        0
 91
        1
 62
     0
 92
       -2
340
0
 93
        0
 40
0.045
309
GRIDFORMAT_END
 95
        2
302
GRIDFORMAT
  1
GRIDFORMAT_BEGIN
 90
        0
 91
        1
 62
     0
 92
       -2
340
0
 93
        0
 40
0.045
309
GRIDFORMAT_END
 95
        4
302
GRIDFORMAT
  1
GRIDFORMAT_BEGIN
 90
        0
 91
        1
 62
     0
 92
       -2
340
0
 93
        0
 40
0.045
309
GRIDFORMAT_END
 95
        8
302
GRIDFORMAT
  1
GRIDFORMAT_BEGIN
 90
        0
 91
        1
 62
     0
 92
       -2
340
0
 93
        0
 40
0.045
309
GRIDFORMAT_END
 95
       16
302
GRIDFORMAT
  1
GRIDFORMAT_BEGIN
 90
        0
 91
        1
 62
     0
 92
       -2
340
0
 93
        0
 40
0.045
309
GRIDFORMAT_END
 95
       32
302
GRIDFORMAT
  1
GRIDFORMAT_BEGIN
 90
        0
 91
        1
 62
     0
 92
       -2
340
0
 93
        0
 40
0.045
309
GRIDFORMAT_END
309
TABLEFORMAT_END
  1
CELLSTYLE_BEGIN
 90
        2
 91
        1
300
_HEADER
309
CELLSTYLE_END
300
CELLSTYLE
  1
TABLEFORMAT_BEGIN
 90
        5
170
     1
 91
        0
 92
        0
 62
   257
 93
        1
300
CONTENTFORMAT
  1
CONTENTFORMAT_BEGIN
 90
        0
 91
        0
 92
        4
 93
        0
300

 40
0.0
140
1.0
 94
        2
 62
     0
340
1C
144
0.18
309
CONTENTFORMAT_END
171
     1
301
MARGIN
  1
CELLMARGIN_BEGIN
 40
0.06
 40
0.06
 40
0.06
 40
0.06
 40
0.18
 40
0.18
309
CELLMARGIN_END
 94
        6
 95
        1
302
GRIDFORMAT
  1
GRIDFORMAT_BEGIN
 90
        0
 91
        1
 62
     0
 92
       -2
340
0
 93
        0
 40
0.045
309
GRIDFORMAT_END
 95
        2
302
GRIDFORMAT
  1
GRIDFORMAT_BEGIN
 90
        0
 91
        1
 62
     0
 92
       -2
340
0
 93
        0
 40
0.045
309
GRIDFORMAT_END
 95
        4
302
GRIDFORMAT
  1
GRIDFORMAT_BEGIN
 90
        0
 91
        1
 62
     0
 92
       -2
340
0
 93
        0
 40
0.045
309
GRIDFORMAT_END
 95
        8
302
GRIDFORMAT
  1
GRIDFORMAT_BEGIN
 90
        0
 91
        1
 62
     0
 92
       -2
340
0
 93
        0
 40
0.045
309
GRIDFORMAT_END
 95
       16
302
GRIDFORMAT
  1
GRIDFORMAT_BEGIN
 90
        0
 91
        1
 62
     0
 92
       -2
340
0
 93
        0
 40
0.045
309
GRIDFORMAT_END
 95
       32
302
GRIDFORMAT
  1
GRIDFORMAT_BEGIN
 90
        0
 91
        1
 62
     0
 92
       -2
340
0
 93
        0
 40
0.045
309
GRIDFORMAT_END
309
TABLEFORMAT_END
  1
CELLSTYLE_BEGIN
 90
        3
 91
        2
300
_DATA
309
CELLSTYLE_END
  0
XRECORD
  5
176
102
{ACAD_REACTORS
330
3A
102
}
330
3A
100
AcDbXrecord
280
     1
102
ACAD_ROUNDTRIP_PRE2007_TABLESTYLE
 90
        4
 91
        0
  1

 92
        4
 93
        0
  2

 94
        4
 95
        0
  3

  0
ENDSEC
  0
EOF
