  0
SECTION
  2
HEADER
  9
$ACADVER
  1
AC1015
  9
$ACADMAINTVER
 70
    10
  9
$DWGCODEPAGE
  3
ANSI_1252
  9
$INSBASE
 10
-194.2978201057755
 20
73.88832960255456
 30
0.0
  9
$EXTMIN
 10
-332.9027174255763
 20
13.21414530388827
 30
0.0
  9
$EXTMAX
 10
-12.75986028271925
 20
251.8038001691871
 30
0.0
  9
$LIMMIN
 10
0.0
 20
0.0
  9
$LIMMAX
 10
420.0
 20
297.0
  9
$ORTHOMODE
 70
     1
  9
$REGENMODE
 70
     1
  9
$FILLMODE
 70
     1
  9
$QTEXTMODE
 70
     0
  9
$MIRRTEXT
 70
     1
  9
$LTSCALE
 40
1.0
  9
$ATTMODE
 70
     1
  9
$TEXTSIZE
 40
3.0
  9
$TRACEWID
 40
10.0
  9
$TEXTSTYLE
  7
STANDARD
  9
$CLAYER
  8
0
  9
$CELTYPE
  6
BYLAYER
  9
$CECOLOR
 62
   256
  9
$CELTSCALE
 40
1.0
  9
$DISPSILH
 70
     0
  9
$DIMSCALE
 40
1.0
  9
$DIMASZ
 40
3.0
  9
$DIMEXO
 40
2.5
  9
$DIMDLI
 40
10.0
  9
$DIMRND
 40
0.0
  9
$DIMDLE
 40
1.25
  9
$DIMEXE
 40
2.5
  9
$DIMTP
 40
0.0
  9
$DIMTM
 40
0.0
  9
$DIMTXT
 40
3.0
  9
$DIMCEN
 40
-3.0
  9
$DIMTSZ
 40
0.0
  9
$DIMTOL
 70
     0
  9
$DIMLIM
 70
     0
  9
$DIMTIH
 70
     0
  9
$DIMTOH
 70
     0
  9
$DIMSE1
 70
     0
  9
$DIMSE2
 70
     0
  9
$DIMTAD
 70
     0
  9
$DIMZIN
 70
     0
  9
$DIMBLK
  1

  9
$DIMASO
 70
     1
  9
$DIMSHO
 70
     0
  9
$DIMPOST
  1

  9
$DIMAPOST
  1

  9
$DIMALT
 70
     0
  9
$DIMALTD
 70
     2
  9
$DIMALTF
 40
0.039
  9
$DIMLFAC
 40
1.0
  9
$DIMTOFL
 70
     0
  9
$DIMTVP
 40
1.5
  9
$DIMTIX
 70
     0
  9
$DIMSOXD
 70
     0
  9
$DIMSAH
 70
     0
  9
$DIMBLK1
  1

  9
$DIMBLK2
  1

  9
$DIMSTYLE
  2
STANDARD
  9
$DIMCLRD
 70
     0
  9
$DIMCLRE
 70
     0
  9
$DIMCLRT
 70
     0
  9
$DIMTFAC
 40
0.75
  9
$DIMGAP
 40
1.5
  9
$DIMJUST
 70
     0
  9
$DIMSD1
 70
     0
  9
$DIMSD2
 70
     0
  9
$DIMTOLJ
 70
     1
  9
$DIMTZIN
 70
     0
  9
$DIMALTZ
 70
     0
  9
$DIMALTTZ
 70
     0
  9
$DIMUPT
 70
     0
  9
$DIMDEC
 70
     2
  9
$DIMTDEC
 70
     2
  9
$DIMALTU
 70
     2
  9
$DIMALTTD
 70
     2
  9
$DIMTXSTY
  7
STANDARD
  9
$DIMAUNIT
 70
     0
  9
$DIMADEC
 70
     0
  9
$DIMALTRND
 40
0.0
  9
$DIMAZIN
 70
     0
  9
$DIMDSEP
 70
    46
  9
$DIMATFIT
 70
     3
  9
$DIMFRAC
 70
     0
  9
$DIMLDRBLK
  1

  9
$DIMLUNIT
 70
     2
  9
$DIMLWD
 70
    -2
  9
$DIMLWE
 70
    -2
  9
$DIMTMOVE
 70
     2
  9
$LUNITS
 70
     2
  9
$LUPREC
 70
     2
  9
$SKETCHINC
 40
1.0
  9
$FILLETRAD
 40
0.0
  9
$AUNITS
 70
     0
  9
$AUPREC
 70
     4
  9
$MENU
  1
C:\ACADWIN\SUPPORT\ACAD
  9
$ELEVATION
 40
0.0
  9
$PELEVATION
 40
0.0
  9
$THICKNESS
 40
0.0
  9
$LIMCHECK
 70
     0
  9
$CHAMFERA
 40
0.0
  9
$CHAMFERB
 40
0.0
  9
$CHAMFERC
 40
0.0
  9
$CHAMFERD
 40
0.0
  9
$SKPOLY
 70
     0
  9
$TDCREATE
 40
2450403.622283912
  9
$TDUCREATE
 40
2450403.622283912
  9
$TDUPDATE
 40
2452599.399941782
  9
$TDUUPDATE
 40
2452599.399941782
  9
$TDINDWG
 40
0.0288957176
  9
$TDUSRTIMER
 40
0.0288957176
  9
$USRTIMER
 70
     1
  9
$ANGBASE
 50
0.0
  9
$ANGDIR
 70
     0
  9
$PDMODE
 70
     0
  9
$PDSIZE
 40
0.0
  9
$PLINEWID
 40
0.0
  9
$SPLFRAME
 70
     0
  9
$SPLINETYPE
 70
     6
  9
$SPLINESEGS
 70
     8
  9
$HANDSEED
  5
152
  9
$SURFTAB1
 70
    18
  9
$SURFTAB2
 70
    18
  9
$SURFTYPE
 70
     6
  9
$SURFU
 70
    18
  9
$SURFV
 70
    18
  9
$UCSBASE
  2

  9
$UCSNAME
  2

  9
$UCSORG
 10
0.0
 20
0.0
 30
0.0
  9
$UCSXDIR
 10
1.0
 20
0.0
 30
0.0
  9
$UCSYDIR
 10
0.0
 20
1.0
 30
0.0
  9
$UCSORTHOREF
  2

  9
$UCSORTHOVIEW
 70
     0
  9
$UCSORGTOP
 10
0.0
 20
0.0
 30
0.0
  9
$UCSORGBOTTOM
 10
0.0
 20
0.0
 30
0.0
  9
$UCSORGLEFT
 10
0.0
 20
0.0
 30
0.0
  9
$UCSORGRIGHT
 10
0.0
 20
0.0
 30
0.0
  9
$UCSORGFRONT
 10
0.0
 20
0.0
 30
0.0
  9
$UCSORGBACK
 10
0.0
 20
0.0
 30
0.0
  9
$PUCSBASE
  2

  9
$PUCSNAME
  2

  9
$PUCSORG
 10
0.0
 20
0.0
 30
0.0
  9
$PUCSXDIR
 10
1.0
 20
0.0
 30
0.0
  9
$PUCSYDIR
 10
0.0
 20
1.0
 30
0.0
  9
$PUCSORTHOREF
  2

  9
$PUCSORTHOVIEW
 70
     0
  9
$PUCSORGTOP
 10
0.0
 20
0.0
 30
0.0
  9
$PUCSORGBOTTOM
 10
0.0
 20
0.0
 30
0.0
  9
$PUCSORGLEFT
 10
0.0
 20
0.0
 30
0.0
  9
$PUCSORGRIGHT
 10
0.0
 20
0.0
 30
0.0
  9
$PUCSORGFRONT
 10
0.0
 20
0.0
 30
0.0
  9
$PUCSORGBACK
 10
0.0
 20
0.0
 30
0.0
  9
$USERI1
 70
     0
  9
$USERI2
 70
     0
  9
$USERI3
 70
     0
  9
$USERI4
 70
     0
  9
$USERI5
 70
     0
  9
$USERR1
 40
0.0
  9
$USERR2
 40
0.0
  9
$USERR3
 40
0.0
  9
$USERR4
 40
0.0
  9
$USERR5
 40
0.0
  9
$WORLDVIEW
 70
     1
  9
$SHADEDGE
 70
     3
  9
$SHADEDIF
 70
    70
  9
$TILEMODE
 70
     1
  9
$MAXACTVP
 70
    16
  9
$PINSBASE
 10
0.0
 20
0.0
 30
0.0
  9
$PLIMCHECK
 70
     0
  9
$PEXTMIN
 10
1.000000000000000E+20
 20
1.000000000000000E+20
 30
1.000000000000000E+20
  9
$PEXTMAX
 10
-1.000000000000000E+20
 20
-1.000000000000000E+20
 30
-1.000000000000000E+20
  9
$PLIMMIN
 10
0.0
 20
0.0
  9
$PLIMMAX
 10
420.0
 20
297.0
  9
$UNITMODE
 70
     0
  9
$VISRETAIN
 70
     0
  9
$PLINEGEN
 70
     0
  9
$PSLTSCALE
 70
     1
  9
$TREEDEPTH
 70
  3020
  9
$CMLSTYLE
  2
STANDARD
  9
$CMLJUST
 70
     0
  9
$CMLSCALE
 40
1.0
  9
$PROXYGRAPHICS
 70
     1
  9
$MEASUREMENT
 70
     0
  9
$CELWEIGHT
370
    -1
  9
$ENDCAPS
280
     0
  9
$JOINSTYLE
280
     0
  9
$LWDISPLAY
290
     0
  9
$INSUNITS
 70
     0
  9
$HYPERLINKBASE
  1

  9
$STYLESHEET
  1

  9
$XEDIT
290
     1
  9
$CEPSNTYPE
380
     0
  9
$PSTYLEMODE
290
     1
  9
$FINGERPRINTGUID
  2
{82FDFF0E-ACCF-11D6-AAC6-0010A4A25215}
  9
$VERSIONGUID
  2
{58CD6977-5BF9-4ADF-86DD-C49744652E66}
  9
$EXTNAMES
290
     1
  9
$PSVPSCALE
 40
0.0
  9
$OLESTARTUP
290
     0
  0
ENDSEC
  0
SECTION
  2
CLASSES
  0
CLASS
  1
DICTIONARYVAR
  2
AcDbDictionaryVar
  3
AutoCAD 2000
 90
    32768
280
     0
281
     0
  0
CLASS
  1
LWPOLYLINE
  2
AcDbPolyline
  3
AutoCAD 2000
 90
    32768
280
     0
281
     1
  0
CLASS
  1
ACDBDICTIONARYWDFLT
  2
AcDbDictionaryWithDefault
  3
AutoCAD 2000
 90
        0
280
     0
281
     0
  0
CLASS
  1
ACDBPLACEHOLDER
  2
AcDbPlaceHolder
  3
AutoCAD 2000
 90
        0
280
     0
281
     0
  0
CLASS
  1
LAYOUT
  2
AcDbLayout
  3
AutoCAD 2000
 90
        0
280
     0
281
     0
  0
ENDSEC
  0
SECTION
  2
TABLES
  0
TABLE
  2
VPORT
  5
19
330
0
100
AcDbSymbolTable
 70
     4
  0
VPORT
  5
151
330
19
100
AcDbSymbolTableRecord
100
AcDbViewportTableRecord
  2
*Active
 70
     0
 10
0.0
 20
0.0
 11
1.0
 21
1.0
 12
-148.5375987993442
 22
97.69419480659133
 13
0.0
 23
0.0
 14
5.0
 24
5.0
 15
10.0
 25
10.0
 16
0.0
 26
0.0
 36
1.0
 17
0.0
 27
0.0
 37
0.0
 40
401.2893913601385
 41
1.502487562189054
 42
50.0
 43
0.0
 44
0.0
 50
0.0
 51
0.0
 71
     0
 72
   100
 73
     1
 74
     1
 75
     0
 76
     0
 77
     0
 78
     0
281
     0
 65
     1
110
0.0
120
0.0
130
0.0
111
1.0
121
0.0
131
0.0
112
0.0
122
1.0
132
0.0
 79
     0
146
0.0
  0
ENDTAB
  0
TABLE
  2
LTYPE
  5
14
330
0
100
AcDbSymbolTable
 70
     1
  0
LTYPE
  5
15
330
14
100
AcDbSymbolTableRecord
100
AcDbLinetypeTableRecord
  2
BYBLOCK
 70
     0
  3

 72
    65
 73
     0
 40
0.0
  0
LTYPE
  5
16
330
14
100
AcDbSymbolTableRecord
100
AcDbLinetypeTableRecord
  2
BYLAYER
 70
     0
  3

 72
    65
 73
     0
 40
0.0
  0
LTYPE
  5
8
330
14
100
AcDbSymbolTableRecord
100
AcDbLinetypeTableRecord
  2
CONTINUOUS
 70
     0
  3
Solid line
 72
    65
 73
     0
 40
0.0
  0
ENDTAB
  0
TABLE
  2
LAYER
  5
10
330
0
100
AcDbSymbolTable
 70
     4
  0
LAYER
  5
4
330
10
100
AcDbSymbolTableRecord
100
AcDbLayerTableRecord
  2
0
 70
     0
 62
     7
  6
CONTINUOUS
370
    -3
390
5
  0
LAYER
  5
25
330
10
100
AcDbSymbolTableRecord
100
AcDbLayerTableRecord
  2
ANCON-CHANNEL
 70
     0
 62
     1
  6
CONTINUOUS
370
    -3
390
5
  0
LAYER
  5
62
330
10
100
AcDbSymbolTableRecord
100
AcDbLayerTableRecord
  2
ANCON-TEXT
 70
     0
 62
     6
  6
CONTINUOUS
370
    -3
390
5
  0
LAYER
  5
71
330
10
100
AcDbSymbolTableRecord
100
AcDbLayerTableRecord
  2
DANCON
 70
     0
 62
     4
  6
CONTINUOUS
370
    -3
390
5
  0
ENDTAB
  0
TABLE
  2
STYLE
  5
11
330
0
100
AcDbSymbolTable
 70
     2
  0
STYLE
  5
12
330
11
100
AcDbSymbolTableRecord
100
AcDbTextStyleTableRecord
  2
STANDARD
 70
     0
 40
0.0
 41
1.0
 50
0.0
 71
     0
 42
3.0
  3
txt.shx
  4

  0
STYLE
  5
63
330
11
100
AcDbSymbolTableRecord
100
AcDbTextStyleTableRecord
  2
ROMANS
 70
     0
 40
9.0
 41
1.0
 50
0.0
 71
     0
 42
9.0
  3
romans
  4

  0
ENDTAB
  0
TABLE
  2
VIEW
  5
17
330
0
100
AcDbSymbolTable
 70
     0
  0
ENDTAB
  0
TABLE
  2
UCS
  5
18
330
0
100
AcDbSymbolTable
 70
     0
  0
ENDTAB
  0
TABLE
  2
APPID
  5
1B
330
0
100
AcDbSymbolTable
 70
     1
  0
APPID
  5
1C
330
1B
100
AcDbSymbolTableRecord
100
AcDbRegAppTableRecord
  2
ACAD
 70
     0
  0
ENDTAB
  0
TABLE
  2
DIMSTYLE
  5
1D
330
0
100
AcDbSymbolTable
 70
     1
100
AcDbDimStyleTable
 71
     0
  0
DIMSTYLE
105
23
330
1D
100
AcDbSymbolTableRecord
100
AcDbDimStyleTableRecord
  2
STANDARD
 70
     0
340
12
  0
ENDTAB
  0
TABLE
  2
BLOCK_RECORD
  5
1
330
0
100
AcDbSymbolTable
 70
     1
  0
BLOCK_RECORD
  5
2
330
1
100
AcDbSymbolTableRecord
100
AcDbBlockTableRecord
  2
*MODEL_SPACE
340
A
  0
BLOCK_RECORD
  5
C
330
1
100
AcDbSymbolTableRecord
100
AcDbBlockTableRecord
  2
*PAPER_SPACE
340
F
  0
BLOCK_RECORD
  5
72
330
1
100
AcDbSymbolTableRecord
100
AcDbBlockTableRecord
  2
Chanel10
340
0
102
{BLKREFS
331
E1
102
}
  0
ENDTAB
  0
ENDSEC
  0
SECTION
  2
BLOCKS
  0
BLOCK
  5
3
330
2
100
AcDbEntity
  8
0
100
AcDbBlockBegin
  2
*MODEL_SPACE
 70
     0
 10
0.0
 20
0.0
 30
0.0
  3
*MODEL_SPACE
  1

  0
ENDBLK
  5
9
330
2
100
AcDbEntity
  8
0
100
AcDbBlockEnd
  0
BLOCK
  5
D
330
C
100
AcDbEntity
 67
     1
  8
0
100
AcDbBlockBegin
  2
*PAPER_SPACE
 70
     0
 10
0.0
 20
0.0
 30
0.0
  3
*PAPER_SPACE
  1

  0
ENDBLK
  5
E
330
C
100
AcDbEntity
 67
     1
  8
0
100
AcDbBlockEnd
  0
BLOCK
  5
DF
330
72
100
AcDbEntity
  8
0
100
AcDbBlockBegin
  2
Chanel10
 70
     0
 10
0.0
 20
0.0
 30
0.0
  3
Chanel10
  1

  0
ARC
  5
73
330
72
100
AcDbEntity
  8
DANCON
100
AcDbCircle
 10
-82.41539570150678
 20
26.41517792168099
 30
0.0
 40
11.03714707831905
100
AcDbArc
 50
44.28564480206202
 51
135.7143551979363
  0
ARC
  5
74
330
72
100
AcDbEntity
  8
DANCON
100
AcDbCircle
 10
-82.41539570150678
 20
26.1414980856299
 30
0.0
 40
8.810826914370212
100
AcDbArc
 50
48.91904114684455
 51
131.0809588531532
  0
ARC
  5
75
330
72
100
AcDbEntity
  8
DANCON
100
AcDbCircle
 10
-82.41539570150678
 20
-26.73684808562882
 30
0.0
 40
8.810826914370212
100
AcDbArc
 50
228.9190411468467
 51
311.0809588531554
  0
ARC
  5
76
330
72
100
AcDbEntity
  8
DANCON
100
AcDbCircle
 10
-82.41539570150678
 20
-27.0105279216799
 30
0.0
 40
11.03714707831905
100
AcDbArc
 50
224.2856448020636
 51
315.714355197938
  0
LINE
  5
77
330
72
100
AcDbEntity
  8
DANCON
100
AcDbLine
 10
0.0
 20
49.70232500000048
 30
0.0
 11
-27.0
 21
49.70232500000048
 31
0.0
  0
LINE
  5
78
330
72
100
AcDbEntity
  8
DANCON
100
AcDbLine
 10
-27.0
 20
-50.29767499999945
 30
0.0
 11
0.0
 21
-50.29767499999945
 31
0.0
  0
LINE
  5
79
330
72
100
AcDbEntity
  8
DANCON
100
AcDbLine
 10
16.38755021194583
 20
-12.66034482047263
 30
0.0
 11
16.38755021194583
 21
12.0649948204736
 31
0.0
  0
LINE
  5
7A
330
72
100
AcDbEntity
  8
DANCON
100
AcDbLine
 10
31.86665021194596
 20
-12.66034482047263
 30
0.0
 11
31.86665021194596
 21
12.0649948204736
 31
0.0
  0
LINE
  5
7B
330
72
100
AcDbEntity
  8
DANCON
100
AcDbLine
 10
0.0
 20
-50.29767499999945
 30
0.0
 11
0.0
 21
49.70232500000048
 31
0.0
  0
ARC
  5
7C
330
72
100
AcDbEntity
  8
DANCON
100
AcDbCircle
 10
21.15696864605741
 20
-12.66034482047291
 30
0.0
 40
4.769418434111595
100
AcDbArc
 50
120.0459147637349
 51
239.9540852362652
  0
LINE
  5
7D
330
72
100
AcDbEntity
  8
DANCON
100
AcDbLine
 10
12.8912448166186
 20
-18.15817499999946
 30
0.0
 11
12.8912448166186
 21
17.56282500000054
 31
0.0
  0
LINE
  5
7E
330
72
100
AcDbEntity
  8
DANCON
100
AcDbLine
 10
16.38755021194583
 20
-0.2976749999994581
 30
0.0
 11
16.38755021194583
 21
-18.15817499999946
 31
0.0
  0
ARC
  5
7F
330
72
100
AcDbEntity
  8
DANCON
100
AcDbCircle
 10
27.09723177783337
 20
-12.66034482047257
 30
0.0
 40
4.769418434112365
100
AcDbArc
 50
300.0459147637402
 51
59.95408523625307
  0
LINE
  5
80
330
72
100
AcDbEntity
  8
DANCON
100
AcDbLine
 10
18.76895021194582
 20
-16.78886999999974
 30
0.0
 11
29.48525021194689
 21
-16.78886999999974
 31
0.0
  0
LINE
  5
81
330
72
100
AcDbEntity
  8
DANCON
100
AcDbLine
 10
16.38755021194583
 20
-18.15817499999946
 30
0.0
 11
12.8912448166186
 21
-18.15817499999946
 31
0.0
  0
LINE
  5
82
330
72
100
AcDbEntity
  8
DANCON
100
AcDbLine
 10
18.76895021194582
 20
16.1935200000002
 30
0.0
 11
29.48525021194575
 21
16.1935200000002
 31
0.0
  0
LINE
  5
83
330
72
100
AcDbEntity
  8
DANCON
100
AcDbLine
 10
18.76895021194536
 20
-8.53181964094557
 30
0.0
 11
29.48525021194621
 21
-8.53181964094557
 31
0.0
  0
LINE
  5
84
330
72
100
AcDbEntity
  8
DANCON
100
AcDbLine
 10
18.76895021194582
 20
7.936469640947052
 30
0.0
 11
29.48525021194666
 21
7.936469640947052
 31
0.0
  0
ARC
  5
85
330
72
100
AcDbEntity
  8
DANCON
100
AcDbCircle
 10
27.09723177783405
 20
12.06499482047337
 30
0.0
 40
4.76941843411174
100
AcDbArc
 50
300.0459147637483
 51
59.95408523626386
  0
ARC
  5
86
330
72
100
AcDbEntity
  8
DANCON
100
AcDbCircle
 10
16.440387524446
 20
-0.2976749999992876
 30
0.0
 40
15.42626268749983
100
AcDbArc
 50
327.7391653073663
 51
32.26083469263363
  0
LINE
  5
87
330
72
100
AcDbEntity
  8
DANCON
100
AcDbLine
 10
38.41550021194564
 20
8.037224999999978
 30
0.0
 11
40.79690021194585
 21
5.655824999999992
 31
0.0
  0
LINE
  5
88
330
72
100
AcDbEntity
  8
DANCON
100
AcDbLine
 10
38.41550021194564
 20
8.037224999999978
 30
0.0
 11
31.86665021194596
 21
8.037224999999978
 31
0.0
  0
LINE
  5
89
330
72
100
AcDbEntity
  8
DANCON
100
AcDbLine
 10
40.79690021194585
 20
-5.655825000000049
 30
0.0
 11
38.41550021194564
 21
-8.037224999999978
 31
0.0
  0
LINE
  5
8A
330
72
100
AcDbEntity
  8
DANCON
100
AcDbLine
 10
38.41550021194564
 20
-8.037224999999978
 30
0.0
 11
31.86665021194596
 21
-8.037224999999978
 31
0.0
  0
LINE
  5
8B
330
72
100
AcDbEntity
  8
DANCON
100
AcDbLine
 10
40.79690021194585
 20
-5.655825000000049
 30
0.0
 11
40.79690021194585
 21
5.655824999999992
 31
0.0
  0
ARC
  5
8C
330
72
100
AcDbEntity
  8
DANCON
100
AcDbCircle
 10
21.15696864605661
 20
12.06499482047382
 30
0.0
 40
4.769418434110749
100
AcDbArc
 50
120.0459147637293
 51
239.9540852362705
  0
LINE
  5
8D
330
72
100
AcDbEntity
  8
DANCON
100
AcDbLine
 10
16.38755021194583
 20
17.56282500000054
 30
0.0
 11
16.38755021194583
 21
-0.2976749999994581
 31
0.0
  0
ARC
  5
8E
330
72
100
AcDbEntity
  8
DANCON
100
AcDbCircle
 10
31.81381289944567
 20
-0.2976749999991739
 30
0.0
 40
15.4262626874999
100
AcDbArc
 50
147.7391653073664
 51
212.2608346926336
  0
LINE
  5
8F
330
72
100
AcDbEntity
  8
DANCON
100
AcDbLine
 10
12.8912448166186
 20
17.56282500000054
 30
0.0
 11
16.38755021194583
 21
17.56282500000054
 31
0.0
  0
LINE
  5
90
330
72
100
AcDbEntity
  8
DANCON
100
AcDbLine
 10
-8.0
 20
-10.69937499999946
 30
0.0
 11
-5.171572875253787
 21
-7.87094787525325
 31
0.0
  0
LINE
  5
91
330
72
100
AcDbEntity
  8
DANCON
100
AcDbLine
 10
-16.0
 20
-9.547674999999458
 30
0.0
 11
-16.0
 21
8.452325000000485
 31
0.0
  0
LINE
  5
92
330
72
100
AcDbEntity
  8
DANCON
100
AcDbLine
 10
-23.06992083997374
 20
31.20232500000031
 30
0.0
 11
-23.06992083997374
 21
-31.79767499999923
 31
0.0
  0
LINE
  5
93
330
72
100
AcDbEntity
  8
DANCON
100
AcDbLine
 10
-20.56992083997329
 20
31.20232500000031
 30
0.0
 11
-20.56992083997329
 21
-31.79767499999923
 31
0.0
  0
LINE
  5
94
330
72
100
AcDbEntity
  8
DANCON
100
AcDbLine
 10
-27.0
 20
32.20232500000031
 30
0.0
 11
-27.0
 21
-32.79767499999923
 31
0.0
  0
LINE
  5
95
330
72
100
AcDbEntity
  8
DANCON
100
AcDbLine
 10
-23.06992083997374
 20
31.87409504821408
 30
0.0
 11
-23.06992083997374
 21
-32.46944504817349
 31
0.0
  0
ARC
  5
96
330
72
100
AcDbEntity
  8
DANCON
100
AcDbCircle
 10
-41.84706109949138
 20
-25.08676763444589
 30
0.0
 40
7.790467262004838
100
AcDbArc
 50
232.3330981088856
 51
277.129308270384
  0
ARC
  5
97
330
72
100
AcDbEntity
  8
DANCON
100
AcDbCircle
 10
-41.84706109949138
 20
-25.08676763444589
 30
0.0
 40
10.29046726200483
100
AcDbArc
 50
232.3330981088856
 51
277.129308270384
  0
LINE
  5
98
330
72
100
AcDbEntity
  8
DANCON
100
AcDbLine
 10
-8.0
 20
-44.64077499999951
 30
0.0
 11
-5.171572875253787
 21
-41.81234787525329
 31
0.0
  0
LINE
  5
99
330
72
100
AcDbEntity
  8
DANCON
100
AcDbLine
 10
-27.0
 20
-35.29767499999923
 30
0.0
 11
-27.0
 21
-50.29767499999945
 31
0.0
  0
LINE
  5
9A
330
72
100
AcDbEntity
  8
DANCON
100
AcDbLine
 10
-22.0
 20
-50.29767499999945
 30
0.0
 11
-22.0
 21
-34.61998393352669
 31
0.0
  0
LINE
  5
9B
330
72
100
AcDbEntity
  8
DANCON
100
AcDbLine
 10
-5.171572875253787
 20
-47.46924787525324
 30
0.0
 11
-8.0
 21
-44.64082075050703
 31
0.0
  0
LINE
  5
9C
330
72
100
AcDbEntity
  8
DANCON
100
AcDbLine
 10
-8.0
 20
-50.29767499999945
 30
0.0
 11
-5.171572875253787
 21
-47.46924787525324
 31
0.0
  0
ARC
  5
9D
330
72
100
AcDbEntity
  8
DANCON
100
AcDbCircle
 10
-24.06992083997375
 20
-31.79767499999923
 30
0.0
 40
3.5
100
AcDbArc
 50
270.0
 51
0.0
  0
LINE
  5
9E
330
72
100
AcDbEntity
  8
DANCON
100
AcDbLine
 10
-8.0
 20
-27.67007499999943
 30
0.0
 11
-5.171572875253787
 21
-24.84164787525321
 31
0.0
  0
LINE
  5
9F
330
72
100
AcDbEntity
  8
DANCON
100
AcDbLine
 10
-5.171572875253787
 20
-30.49854787525328
 30
0.0
 11
-8.0
 21
-27.67012075050706
 31
0.0
  0
LINE
  5
A0
330
72
100
AcDbEntity
  8
DANCON
100
AcDbLine
 10
-5.171572875253787
 20
-41.81234787525329
 30
0.0
 11
-8.0
 21
-38.98392075050708
 31
0.0
  0
LINE
  5
A1
330
72
100
AcDbEntity
  8
DANCON
100
AcDbLine
 10
-5.171572875253787
 20
-36.15544787525323
 30
0.0
 11
-8.0
 21
-33.32702075050701
 31
0.0
  0
LINE
  5
A2
330
72
100
AcDbEntity
  8
DANCON
100
AcDbLine
 10
-8.0
 20
-38.98387499999944
 30
0.0
 11
-5.171572875253787
 21
-36.15544787525323
 31
0.0
  0
LINE
  5
A3
330
72
100
AcDbEntity
  8
DANCON
100
AcDbLine
 10
-8.0
 20
-33.32697499999949
 30
0.0
 11
-5.171572875253787
 21
-30.49854787525328
 31
0.0
  0
LINE
  5
A4
330
72
100
AcDbEntity
  8
DANCON
100
AcDbLine
 10
-6.848299999999881
 20
-9.547674999999571
 30
0.0
 11
-16.0
 21
-9.547674999999458
 31
0.0
  0
LINE
  5
A5
330
72
100
AcDbEntity
  8
DANCON
100
AcDbLine
 10
-5.171572875253787
 20
-24.84164787525321
 30
0.0
 11
-8.0
 21
-22.013220750507
 31
0.0
  0
LINE
  5
A6
330
72
100
AcDbEntity
  8
DANCON
100
AcDbLine
 10
-5.171572875253787
 20
-19.18474787525326
 30
0.0
 11
-8.0
 21
-16.35632075050705
 31
0.0
  0
LINE
  5
A7
330
72
100
AcDbEntity
  8
DANCON
100
AcDbLine
 10
-8.0
 20
-16.35627499999941
 30
0.0
 11
-5.171572875253787
 21
-13.5278478752532
 31
0.0
  0
LINE
  5
A8
330
72
100
AcDbEntity
  8
DANCON
100
AcDbLine
 10
-8.0
 20
-22.01317499999948
 30
0.0
 11
-5.171572875253787
 21
-19.18474787525326
 31
0.0
  0
LINE
  5
A9
330
72
100
AcDbEntity
  8
DANCON
100
AcDbLine
 10
-5.171572875253787
 20
-13.5278478752532
 30
0.0
 11
-8.0
 21
-10.69942075050698
 31
0.0
  0
LINE
  5
AA
330
72
100
AcDbEntity
  8
DANCON
100
AcDbLine
 10
-24.06992083997375
 20
-32.79767499999923
 30
0.0
 11
-40.56992083997329
 21
-32.79767499999923
 31
0.0
  0
LINE
  5
AB
330
72
100
AcDbEntity
  8
DANCON
100
AcDbLine
 10
-24.06992083997375
 20
-35.29767499999923
 30
0.0
 11
-40.56992083997329
 21
-35.29767499999923
 31
0.0
  0
ARC
  5
AC
330
72
100
AcDbEntity
  8
DANCON
100
AcDbCircle
 10
-24.06992083997375
 20
-31.79767499999923
 30
0.0
 40
1.0
100
AcDbArc
 50
270.0
 51
0.0
  0
LINE
  5
AD
330
72
100
AcDbEntity
  8
DANCON
100
AcDbLine
 10
-23.06992083997374
 20
-33.72431130476115
 30
0.0
 11
-23.06992083997374
 21
-33.78060034434224
 31
0.0
  0
LINE
  5
AE
330
72
100
AcDbEntity
  8
DANCON
100
AcDbLine
 10
-40.56992083997329
 20
-32.79767499999923
 30
0.0
 11
-40.8801934998537
 21
-32.81700354320963
 31
0.0
  0
ARC
  5
AF
330
72
100
AcDbEntity
  8
DANCON
100
AcDbCircle
 10
-60.56992083997329
 20
-30.87722045454427
 30
0.0
 40
4.670454545454523
100
AcDbArc
 50
212.3784125140534
 51
327.6215874859464
  0
ARC
  5
B0
330
72
100
AcDbEntity
  8
DANCON
100
AcDbCircle
 10
-60.56992083997329
 20
-30.87722045454427
 30
0.0
 40
7.170454545454523
100
AcDbArc
 50
212.3784125140534
 51
327.6215874859464
  0
ARC
  5
B1
330
72
100
AcDbEntity
  8
DANCON
100
AcDbCircle
 10
-50.56992083997329
 20
-37.21812954545419
 30
0.0
 40
4.670454545454523
100
AcDbArc
 50
58.58112072524054
 51
147.6215874859464
  0
ARC
  5
B2
330
72
100
AcDbEntity
  8
DANCON
100
AcDbCircle
 10
-50.56992083997329
 20
-37.21812954545419
 30
0.0
 40
7.170454545454523
100
AcDbArc
 50
57.91381076172186
 51
147.6215874859464
  0
LINE
  5
B3
330
72
100
AcDbEntity
  8
DANCON
100
AcDbLine
 10
-46.60758092669903
 20
-31.25351970787409
 30
0.0
 11
-46.76101574756308
 21
-31.1429620263284
 31
0.0
  0
ARC
  5
B4
330
72
100
AcDbEntity
  8
DANCON
100
AcDbCircle
 10
-70.56992083997318
 20
-37.21812954545419
 30
0.0
 40
4.670454545454523
100
AcDbArc
 50
32.37841251405352
 51
147.6215874859464
  0
ARC
  5
B5
330
72
100
AcDbEntity
  8
DANCON
100
AcDbCircle
 10
-70.56992083997318
 20
-37.21812954545419
 30
0.0
 40
7.170454545454523
100
AcDbArc
 50
32.37841251405352
 51
147.6215874859464
  0
ARC
  5
B6
330
72
100
AcDbEntity
  8
DANCON
100
AcDbCircle
 10
-41.84706109949138
 20
24.49141763444697
 30
0.0
 40
7.790467262004838
100
AcDbArc
 50
82.87069172961595
 51
127.6669018911143
  0
ARC
  5
B7
330
72
100
AcDbEntity
  8
DANCON
100
AcDbCircle
 10
-41.84706109949138
 20
24.49141763444697
 30
0.0
 40
10.29046726200483
100
AcDbArc
 50
82.87069172961595
 51
127.6669018911143
  0
LINE
  5
B8
330
72
100
AcDbEntity
  8
DANCON
100
AcDbLine
 10
-8.0
 20
23.24202500000041
 30
0.0
 11
-5.171572875253787
 21
26.07045212474662
 31
0.0
  0
LINE
  5
B9
330
72
100
AcDbEntity
  8
DANCON
100
AcDbLine
 10
-8.0
 20
6.271325000000445
 30
0.0
 11
-5.171572875253787
 21
9.099752124746657
 31
0.0
  0
LINE
  5
BA
330
72
100
AcDbEntity
  8
DANCON
100
AcDbLine
 10
-8.0
 20
-5.042474999999399
 30
0.0
 11
-5.171572875253787
 21
-2.214047875253186
 31
0.0
  0
LINE
  5
BB
330
72
100
AcDbEntity
  8
DANCON
100
AcDbLine
 10
-5.171572875253787
 20
-7.87094787525325
 30
0.0
 11
-8.0
 21
-5.042520750507037
 31
0.0
  0
LINE
  5
BC
330
72
100
AcDbEntity
  8
DANCON
100
AcDbLine
 10
-8.0
 20
0.6144250000004945
 30
0.0
 11
-5.171572875253787
 21
3.442852124746707
 31
0.0
  0
LINE
  5
BD
330
72
100
AcDbEntity
  8
DANCON
100
AcDbLine
 10
-5.171572875253787
 20
-2.214047875253186
 30
0.0
 11
-8.0
 21
0.6143792494929699
 31
0.0
  0
LINE
  5
BE
330
72
100
AcDbEntity
  8
DANCON
100
AcDbLine
 10
-5.171572875253787
 20
3.442852124746707
 30
0.0
 11
-8.0
 21
6.27127924949292
 31
0.0
  0
LINE
  5
BF
330
72
100
AcDbEntity
  8
DANCON
100
AcDbLine
 10
-5.818999999999959
 20
8.452325000000485
 30
0.0
 11
-16.0
 21
8.452325000000485
 31
0.0
  0
LINE
  5
C0
330
72
100
AcDbEntity
  8
DANCON
100
AcDbLine
 10
-5.171572875253787
 20
14.75665212474672
 30
0.0
 11
-8.0
 21
17.58507924949293
 31
0.0
  0
LINE
  5
C1
330
72
100
AcDbEntity
  8
DANCON
100
AcDbLine
 10
-8.0
 20
11.9282250000005
 30
0.0
 11
-5.171572875253787
 21
14.75665212474672
 31
0.0
  0
LINE
  5
C2
330
72
100
AcDbEntity
  8
DANCON
100
AcDbLine
 10
-8.0
 20
17.58512500000046
 30
0.0
 11
-5.171572875253787
 21
20.41355212474667
 31
0.0
  0
LINE
  5
C3
330
72
100
AcDbEntity
  8
DANCON
100
AcDbLine
 10
-5.171572875253787
 20
9.099752124746657
 30
0.0
 11
-8.0
 21
11.92817924949287
 31
0.0
  0
LINE
  5
C4
330
72
100
AcDbEntity
  8
DANCON
100
AcDbLine
 10
-5.171572875253787
 20
20.41355212474667
 30
0.0
 11
-8.0
 21
23.24197924949288
 31
0.0
  0
ARC
  5
C5
330
72
100
AcDbEntity
  8
DANCON
100
AcDbCircle
 10
-24.06992083997375
 20
31.20232500000031
 30
0.0
 40
3.5
100
AcDbArc
 50
0.0
 51
90.0
  0
LINE
  5
C6
330
72
100
AcDbEntity
  8
DANCON
100
AcDbLine
 10
-8.0
 20
40.21272500000049
 30
0.0
 11
-5.171572875253787
 21
43.0411521247467
 31
0.0
  0
LINE
  5
C7
330
72
100
AcDbEntity
  8
DANCON
100
AcDbLine
 10
-5.171572875253787
 20
31.72735212474668
 30
0.0
 11
-8.0
 21
34.5557792494929
 31
0.0
  0
LINE
  5
C8
330
72
100
AcDbEntity
  8
DANCON
100
AcDbLine
 10
-8.0
 20
34.55582500000042
 30
0.0
 11
-5.171572875253787
 21
37.38425212474663
 31
0.0
  0
LINE
  5
C9
330
72
100
AcDbEntity
  8
DANCON
100
AcDbLine
 10
-5.171572875253787
 20
26.07045212474662
 30
0.0
 11
-8.0
 21
28.89887924949283
 31
0.0
  0
LINE
  5
CA
330
72
100
AcDbEntity
  8
DANCON
100
AcDbLine
 10
-8.0
 20
28.89892500000047
 30
0.0
 11
-5.171572875253787
 21
31.72735212474668
 31
0.0
  0
LINE
  5
CB
330
72
100
AcDbEntity
  8
DANCON
100
AcDbLine
 10
-5.171572875253787
 20
37.38425212474663
 30
0.0
 11
-8.0
 21
40.21267924949285
 31
0.0
  0
LINE
  5
CC
330
72
100
AcDbEntity
  8
DANCON
100
AcDbLine
 10
-5.171572875253787
 20
48.69805212474665
 30
0.0
 11
-6.175845750507505
 21
49.70232500000048
 31
0.0
  0
LINE
  5
CD
330
72
100
AcDbEntity
  8
DANCON
100
AcDbLine
 10
-5.171572875253787
 20
43.0411521247467
 30
0.0
 11
-8.0
 21
45.86957924949291
 31
0.0
  0
LINE
  5
CE
330
72
100
AcDbEntity
  8
DANCON
100
AcDbLine
 10
-8.0
 20
45.86962500000043
 30
0.0
 11
-5.171572875253787
 21
48.69805212474665
 31
0.0
  0
LINE
  5
CF
330
72
100
AcDbEntity
  8
DANCON
100
AcDbLine
 10
-27.0
 20
49.70232500000048
 30
0.0
 11
-27.0
 21
34.70232500000031
 31
0.0
  0
LINE
  5
D0
330
72
100
AcDbEntity
  8
DANCON
100
AcDbLine
 10
-22.0
 20
34.02463393352309
 30
0.0
 11
-22.0
 21
49.70232500000048
 31
0.0
  0
LINE
  5
D1
330
72
100
AcDbEntity
  8
DANCON
100
AcDbLine
 10
-24.06992083997375
 20
34.70232500000031
 30
0.0
 11
-40.56992083997329
 21
34.70232500000031
 31
0.0
  0
LINE
  5
D2
330
72
100
AcDbEntity
  8
DANCON
100
AcDbLine
 10
-24.06992083997375
 20
32.20232500000031
 30
0.0
 11
-40.56992083997329
 21
32.20232500000031
 31
0.0
  0
ARC
  5
D3
330
72
100
AcDbEntity
  8
DANCON
100
AcDbCircle
 10
-24.06992083997375
 20
31.20232500000031
 30
0.0
 40
1.0
100
AcDbArc
 50
0.0
 51
90.0
  0
LINE
  5
D4
330
72
100
AcDbEntity
  8
DANCON
100
AcDbLine
 10
-40.56992083997329
 20
32.20232500000031
 30
0.0
 11
-40.8801934998537
 21
32.22165354321072
 31
0.0
  0
ARC
  5
D5
330
72
100
AcDbEntity
  8
DANCON
100
AcDbCircle
 10
-60.56992083997329
 20
30.28187045454535
 30
0.0
 40
7.170454545454523
100
AcDbArc
 50
32.37841251405352
 51
147.6215874859464
  0
ARC
  5
D6
330
72
100
AcDbEntity
  8
DANCON
100
AcDbCircle
 10
-60.56992083997329
 20
30.28187045454535
 30
0.0
 40
4.670454545454523
100
AcDbArc
 50
32.37841251405352
 51
147.6215874859464
  0
ARC
  5
D7
330
72
100
AcDbEntity
  8
DANCON
100
AcDbCircle
 10
-50.56992083997329
 20
36.62277954545527
 30
0.0
 40
4.670454545454523
100
AcDbArc
 50
212.3784125140534
 51
301.4188792747594
  0
ARC
  5
D8
330
72
100
AcDbEntity
  8
DANCON
100
AcDbCircle
 10
-50.56992083997329
 20
36.62277954545527
 30
0.0
 40
7.170454545454523
100
AcDbArc
 50
212.3784125140534
 51
302.0861892382781
  0
LINE
  5
D9
330
72
100
AcDbEntity
  8
DANCON
100
AcDbLine
 10
-46.60758092669903
 20
30.65816970787517
 30
0.0
 11
-46.76101574756308
 21
30.54761202632949
 31
0.0
  0
ARC
  5
DA
330
72
100
AcDbEntity
  8
DANCON
100
AcDbCircle
 10
-70.56992083997318
 20
36.62277954545527
 30
0.0
 40
7.170454545454523
100
AcDbArc
 50
212.3784125140534
 51
327.6215874859464
  0
ARC
  5
DB
330
72
100
AcDbEntity
  8
DANCON
100
AcDbCircle
 10
-70.56992083997318
 20
36.62277954545527
 30
0.0
 40
4.670454545454523
100
AcDbArc
 50
212.3784125140534
 51
327.6215874859464
  0
LINE
  5
DC
330
72
100
AcDbEntity
  8
DANCON
100
AcDbLine
 10
-90.31653275113956
 20
-34.71706079654393
 30
0.0
 11
-88.20520837494029
 21
-33.37828920345362
 31
0.0
  0
LINE
  5
DD
330
72
100
AcDbEntity
  8
DANCON
100
AcDbLine
 10
-90.31653275113956
 20
34.12171079654501
 30
0.0
 11
-88.20520837494029
 21
32.7829392034547
 31
0.0
  0
LINE
  5
DE
330
72
100
AcDbEntity
  8
DANCON
 62
     1
100
AcDbLine
 10
65.86844525839945
 20
0.0
 30
0.0
 11
-108.2081090468103
 21
0.0
 31
0.0
  0
ENDBLK
  5
E0
330
72
100
AcDbEntity
  8
0
100
AcDbBlockEnd
  0
ENDSEC
  0
SECTION
  2
ENTITIES
  0
LINE
  5
24
330
2
100
AcDbEntity
  8
ANCON-CHANNEL
100
AcDbLine
 10
-204.2978393321532
 20
87.96127861942968
 30
0.0
 11
-204.2978393321531
 21
84.88832960255455
 31
0.0
  0
LINE
  5
26
330
2
100
AcDbEntity
  8
ANCON-CHANNEL
100
AcDbLine
 10
-199.5478393321532
 20
84.88832960255455
 30
0.0
 11
-204.2978393321532
 21
84.88832960255455
 31
0.0
  0
LINE
  5
27
330
2
100
AcDbEntity
  8
ANCON-CHANNEL
100
AcDbLine
 10
-199.5478393321532
 20
87.96127861942972
 30
0.0
 11
-204.2978393321531
 21
87.96127861942972
 31
0.0
  0
ARC
  5
28
330
2
100
AcDbEntity
  8
ANCON-CHANNEL
100
AcDbCircle
 10
-199.0603366443554
 20
89.62582946109151
 30
0.0
 40
4.762516538579958
100
AcDbArc
 50
264.1247749296158
 51
89.84965006201754
  0
ARC
  5
29
330
2
100
AcDbEntity
  8
ANCON-CHANNEL
100
AcDbCircle
 10
-199.0478393321532
 20
89.63832960255457
 30
0.0
 40
1.75
100
AcDbArc
 50
253.3984504009797
 51
90.0
  0
ARC
  5
2A
330
2
100
AcDbEntity
  8
ANCON-CHANNEL
100
AcDbCircle
 10
-199.0478393321532
 20
58.13832960255459
 30
0.0
 40
1.75
100
AcDbArc
 50
270.0
 51
106.6015495990202
  0
LINE
  5
2B
330
2
100
AcDbEntity
  8
ANCON-CHANNEL
100
AcDbLine
 10
-204.2978393321532
 20
59.81538058567943
 30
0.0
 11
-204.2978393321531
 21
62.88832960255459
 31
0.0
  0
ARC
  5
2C
330
2
100
AcDbEntity
  8
ANCON-CHANNEL
100
AcDbCircle
 10
-199.0603366443554
 20
58.15082974401761
 30
0.0
 40
4.762516538579967
100
AcDbArc
 50
270.1503499379824
 51
95.87522507038416
  0
LINE
  5
2D
330
2
100
AcDbEntity
  8
ANCON-CHANNEL
100
AcDbLine
 10
-199.5478393321532
 20
62.88832960255459
 30
0.0
 11
-204.2978393321532
 21
62.88832960255459
 31
0.0
  0
LINE
  5
2E
330
2
100
AcDbEntity
  8
ANCON-CHANNEL
100
AcDbLine
 10
-199.5478393321532
 20
59.81538058567943
 30
0.0
 11
-204.2978393321531
 21
59.81538058567943
 31
0.0
  0
LINE
  5
2F
330
2
100
AcDbEntity
  8
ANCON-CHANNEL
100
AcDbLine
 10
-218.2978393321531
 20
83.88832960255456
 30
0.0
 11
-215.2978393321531
 21
83.88832960255456
 31
0.0
  0
LINE
  5
30
330
2
100
AcDbEntity
  8
ANCON-CHANNEL
100
AcDbLine
 10
-231.9469112508647
 20
80.55605644034448
 30
0.0
 11
-231.9469112508647
 21
83.88832960255456
 31
0.0
  0
LINE
  5
31
330
2
100
AcDbEntity
  8
ANCON-CHANNEL
100
AcDbLine
 10
-231.9469112508647
 20
71.64219579392448
 30
0.0
 11
-231.9469112508647
 21
77.69563892430198
 31
0.0
  0
ARC
  5
32
330
2
100
AcDbEntity
  8
ANCON-CHANNEL
100
AcDbCircle
 10
-215.2978393321531
 20
88.38832960255459
 30
0.0
 40
6.0
100
AcDbArc
 50
90.0
 51
179.9999999999999
  0
ARC
  5
33
330
2
100
AcDbEntity
  8
ANCON-CHANNEL
100
AcDbCircle
 10
-215.2978393321531
 20
88.38832960255459
 30
0.0
 40
3.0
100
AcDbArc
 50
90.0
 51
179.9999999999999
  0
LINE
  5
34
330
2
100
AcDbEntity
  8
ANCON-CHANNEL
100
AcDbLine
 10
-232.9469112508647
 20
68.71525748521938
 30
0.0
 11
-232.9469112508647
 21
74.96826299358471
 31
0.0
  0
LINE
  5
35
330
2
100
AcDbEntity
  8
ANCON-CHANNEL
100
AcDbLine
 10
-233.9469112508647
 20
68.71525748521938
 30
0.0
 11
-233.9469112508647
 21
76.49825500808962
 31
0.0
  0
LINE
  5
36
330
2
100
AcDbEntity
  8
ANCON-CHANNEL
100
AcDbLine
 10
-233.9469112508647
 20
78.95954501150348
 30
0.0
 11
-233.9469112508647
 21
83.88832960255456
 31
0.0
  0
LINE
  5
37
330
2
100
AcDbEntity
  8
ANCON-CHANNEL
100
AcDbLine
 10
-232.9469112508647
 20
76.3652120444379
 30
0.0
 11
-232.9469112508647
 21
83.88832960255456
 31
0.0
  0
LINE
  5
38
330
2
100
AcDbEntity
  8
ANCON-CHANNEL
100
AcDbLine
 10
-245.0787790132155
 20
80.55605644034448
 30
0.0
 11
-245.0787790132155
 21
83.88832960255456
 31
0.0
  0
LINE
  5
39
330
2
100
AcDbEntity
  8
ANCON-CHANNEL
100
AcDbLine
 10
-246.0787790132155
 20
68.71525748521938
 30
0.0
 11
-246.0787790132155
 21
74.96826299358471
 31
0.0
  0
LINE
  5
3A
330
2
100
AcDbEntity
  8
ANCON-CHANNEL
100
AcDbLine
 10
-247.0787790132155
 20
68.71525748521938
 30
0.0
 11
-247.0787790132155
 21
76.49825500808962
 31
0.0
  0
LINE
  5
3B
330
2
100
AcDbEntity
  8
ANCON-CHANNEL
100
AcDbLine
 10
-245.0787790132155
 20
71.64219579392448
 30
0.0
 11
-245.0787790132155
 21
77.69563892430198
 31
0.0
  0
LINE
  5
3C
330
2
100
AcDbEntity
  8
ANCON-CHANNEL
100
AcDbLine
 10
-246.0787790132155
 20
76.3652120444379
 30
0.0
 11
-246.0787790132155
 21
83.88832960255456
 31
0.0
  0
LINE
  5
3D
330
2
100
AcDbEntity
  8
ANCON-CHANNEL
100
AcDbLine
 10
-247.0787790132155
 20
78.95954501150348
 30
0.0
 11
-247.0787790132155
 21
83.88832960255456
 31
0.0
  0
LINE
  5
3E
330
2
100
AcDbEntity
  8
ANCON-CHANNEL
100
AcDbLine
 10
-218.2978393321531
 20
63.88832960255456
 30
0.0
 11
-215.2978393321531
 21
63.88832960255456
 31
0.0
  0
ARC
  5
3F
330
2
100
AcDbEntity
  8
ANCON-CHANNEL
100
AcDbCircle
 10
-215.2978393321531
 20
59.38832960255453
 30
0.0
 40
3.0
100
AcDbArc
 50
180.0
 51
270.0
  0
ARC
  5
40
330
2
100
AcDbEntity
  8
ANCON-CHANNEL
100
AcDbCircle
 10
-215.2978393321531
 20
59.38832960255453
 30
0.0
 40
6.0
100
AcDbArc
 50
180.0
 51
270.0
  0
LINE
  5
41
330
2
100
AcDbEntity
  8
ANCON-CHANNEL
100
AcDbLine
 10
-232.9469112508647
 20
63.88832960255456
 30
0.0
 11
-232.9469112508647
 21
66.98570171440019
 31
0.0
  0
LINE
  5
42
330
2
100
AcDbEntity
  8
ANCON-CHANNEL
100
AcDbLine
 10
-233.9469112508647
 20
63.88832960255456
 30
0.0
 11
-233.9469112508647
 21
66.18744531081643
 31
0.0
  0
LINE
  5
43
330
2
100
AcDbEntity
  8
ANCON-CHANNEL
100
AcDbLine
 10
-246.0787790132155
 20
63.88832960255456
 30
0.0
 11
-246.0787790132155
 21
66.98570171440019
 31
0.0
  0
LINE
  5
44
330
2
100
AcDbEntity
  8
ANCON-CHANNEL
100
AcDbLine
 10
-247.0787790132155
 20
63.88832960255456
 30
0.0
 11
-247.0787790132155
 21
66.18744531081643
 31
0.0
  0
LINE
  5
45
330
2
100
AcDbEntity
  8
ANCON-CHANNEL
100
AcDbLine
 10
-245.0787790132155
 20
63.88832960255456
 30
0.0
 11
-245.0787790132155
 21
68.84829907054461
 31
0.0
  0
LINE
  5
46
330
2
100
AcDbEntity
  8
ANCON-CHANNEL
100
AcDbLine
 10
-218.2978393321531
 20
59.38832960255453
 30
0.0
 11
-218.2978393321531
 21
88.38832960255459
 31
0.0
  0
LINE
  5
47
330
2
100
AcDbEntity
  8
ANCON-CHANNEL
100
AcDbLine
 10
-218.2978393321531
 20
83.88832960255456
 30
0.0
 11
-218.2978393321531
 21
63.88832960255456
 31
0.0
  0
LINE
  5
48
330
2
100
AcDbEntity
  8
ANCON-CHANNEL
100
AcDbLine
 10
-215.2978393321531
 20
63.88832960255456
 30
0.0
 11
-215.2978393321531
 21
83.88832960255456
 31
0.0
  0
LINE
  5
49
330
2
100
AcDbEntity
  8
ANCON-CHANNEL
100
AcDbLine
 10
-221.2978393321531
 20
59.38832960255453
 30
0.0
 11
-221.2978393321531
 21
88.38832960255459
 31
0.0
  0
LINE
  5
4A
330
2
100
AcDbEntity
  8
ANCON-CHANNEL
100
AcDbLine
 10
-221.2978393321531
 20
83.88832960255456
 30
0.0
 11
-221.2978393321531
 21
63.88832960255456
 31
0.0
  0
LINE
  5
4B
330
2
100
AcDbEntity
  8
ANCON-CHANNEL
100
AcDbLine
 10
-231.9469112508647
 20
63.88832960255456
 30
0.0
 11
-231.9469112508647
 21
68.84829907054461
 31
0.0
  0
LINE
  5
4C
330
2
100
AcDbEntity
  8
ANCON-CHANNEL
100
AcDbLine
 10
-258.2106467755663
 20
80.55605644034448
 30
0.0
 11
-258.2106467755663
 21
83.88832960255456
 31
0.0
  0
LINE
  5
4D
330
2
100
AcDbEntity
  8
ANCON-CHANNEL
100
AcDbLine
 10
-258.2106467755663
 20
71.64219579392448
 30
0.0
 11
-258.2106467755663
 21
77.69563892430198
 31
0.0
  0
LINE
  5
4E
330
2
100
AcDbEntity
  8
ANCON-CHANNEL
100
AcDbLine
 10
-259.2106467755663
 20
68.71525748521938
 30
0.0
 11
-259.2106467755663
 21
74.96826299358471
 31
0.0
  0
LINE
  5
4F
330
2
100
AcDbEntity
  8
ANCON-CHANNEL
100
AcDbLine
 10
-260.2106467755664
 20
68.71525748521938
 30
0.0
 11
-260.2106467755664
 21
76.49825500808962
 31
0.0
  0
LINE
  5
50
330
2
100
AcDbEntity
  8
ANCON-CHANNEL
100
AcDbLine
 10
-260.2106467755664
 20
78.95954501150348
 30
0.0
 11
-260.2106467755664
 21
83.88832960255456
 31
0.0
  0
LINE
  5
51
330
2
100
AcDbEntity
  8
ANCON-CHANNEL
100
AcDbLine
 10
-259.2106467755663
 20
76.3652120444379
 30
0.0
 11
-259.2106467755663
 21
83.88832960255456
 31
0.0
  0
LINE
  5
52
330
2
100
AcDbEntity
  8
ANCON-CHANNEL
100
AcDbLine
 10
-271.3425145379171
 20
80.55605644034448
 30
0.0
 11
-271.3425145379171
 21
83.88832960255456
 31
0.0
  0
LINE
  5
53
330
2
100
AcDbEntity
  8
ANCON-CHANNEL
100
AcDbLine
 10
-272.3425145379171
 20
68.71525748521938
 30
0.0
 11
-272.3425145379171
 21
74.96826299358471
 31
0.0
  0
LINE
  5
54
330
2
100
AcDbEntity
  8
ANCON-CHANNEL
100
AcDbLine
 10
-273.3425145379171
 20
68.71525748521938
 30
0.0
 11
-273.3425145379171
 21
76.49825500808962
 31
0.0
  0
LINE
  5
55
330
2
100
AcDbEntity
  8
ANCON-CHANNEL
100
AcDbLine
 10
-271.3425145379171
 20
71.64219579392448
 30
0.0
 11
-271.3425145379171
 21
77.69563892430198
 31
0.0
  0
LINE
  5
56
330
2
100
AcDbEntity
  8
ANCON-CHANNEL
100
AcDbLine
 10
-272.3425145379171
 20
76.3652120444379
 30
0.0
 11
-272.3425145379171
 21
83.88832960255456
 31
0.0
  0
LINE
  5
57
330
2
100
AcDbEntity
  8
ANCON-CHANNEL
100
AcDbLine
 10
-273.3425145379171
 20
78.95954501150348
 30
0.0
 11
-273.3425145379171
 21
83.88832960255456
 31
0.0
  0
LINE
  5
58
330
2
100
AcDbEntity
  8
ANCON-CHANNEL
100
AcDbLine
 10
-260.2106467755664
 20
63.88832960255456
 30
0.0
 11
-260.2106467755664
 21
66.18744531081643
 31
0.0
  0
LINE
  5
59
330
2
100
AcDbEntity
  8
ANCON-CHANNEL
100
AcDbLine
 10
-259.2106467755663
 20
63.88832960255456
 30
0.0
 11
-259.2106467755663
 21
66.98570171440019
 31
0.0
  0
LINE
  5
5A
330
2
100
AcDbEntity
  8
ANCON-CHANNEL
100
AcDbLine
 10
-272.3425145379171
 20
63.88832960255456
 30
0.0
 11
-272.3425145379171
 21
66.98570171440019
 31
0.0
  0
LINE
  5
5B
330
2
100
AcDbEntity
  8
ANCON-CHANNEL
100
AcDbLine
 10
-273.3425145379171
 20
63.88832960255456
 30
0.0
 11
-273.3425145379171
 21
66.18744531081643
 31
0.0
  0
LINE
  5
5C
330
2
100
AcDbEntity
  8
ANCON-CHANNEL
100
AcDbLine
 10
-289.2978393321531
 20
63.88832960255456
 30
0.0
 11
-289.2978393321531
 21
83.88832960255456
 31
0.0
  0
LINE
  5
5D
330
2
100
AcDbEntity
  8
ANCON-CHANNEL
100
AcDbLine
 10
-271.3425145379171
 20
63.88832960255456
 30
0.0
 11
-271.3425145379171
 21
68.84829907054461
 31
0.0
  0
LINE
  5
5E
330
2
100
AcDbEntity
  8
ANCON-CHANNEL
100
AcDbLine
 10
-258.2106467755663
 20
63.88832960255456
 30
0.0
 11
-258.2106467755663
 21
68.84829907054461
 31
0.0
  0
LINE
  5
5F
330
2
100
AcDbEntity
  8
ANCON-CHANNEL
100
AcDbLine
 10
-289.2978393321531
 20
83.88832960255456
 30
0.0
 11
-221.2978393321531
 21
83.88832960255456
 31
0.0
  0
LINE
  5
60
330
2
100
AcDbEntity
  8
ANCON-CHANNEL
100
AcDbLine
 10
-289.2978393321531
 20
63.88832960255456
 30
0.0
 11
-221.2978393321531
 21
63.88832960255456
 31
0.0
  0
TEXT
  5
61
330
2
100
AcDbEntity
  8
ANCON-TEXT
100
AcDbText
 10
-333.3312888541478
 20
27.78557387531682
 30
0.0
 40
9.0
  1
ANCON 41/27 ANCONLOCK CAST-IN CHANNEL
  7
ROMANS
100
AcDbText
  0
TEXT
  5
64
330
2
100
AcDbEntity
  8
ANCON-TEXT
100
AcDbText
 10
-333.3312888541478
 20
13.21414530388827
 30
0.0
 40
9.0
  1
STANDARD EDGE : 100mm
  7
ROMANS
100
AcDbText
  0
TEXT
  5
65
330
2
100
AcDbEntity
  8
ANCON-TEXT
100
AcDbText
 10
-333.3312888541478
 20
-30.5001404103975
 30
0.0
 40
9.0
  1

  7
ROMANS
100
AcDbText
  0
LINE
  5
66
330
2
100
AcDbEntity
  8
ANCON-CHANNEL
100
AcDbLine
 10
-199.0478393321532
 20
53.38832960255459
 30
0.0
 11
-215.2978393321531
 21
53.38832960255453
 31
0.0
  0
LINE
  5
67
330
2
100
AcDbEntity
  8
ANCON-CHANNEL
100
AcDbLine
 10
-199.0478393321532
 20
56.38832960255456
 30
0.0
 11
-215.2978393321531
 21
56.38832960255453
 31
0.0
  0
LINE
  5
68
330
2
100
AcDbEntity
  8
ANCON-CHANNEL
100
AcDbLine
 10
-199.0478393321532
 20
94.38832960255458
 30
0.0
 11
-215.2978393321531
 21
94.38832960255458
 31
0.0
  0
LINE
  5
69
330
2
100
AcDbEntity
  8
ANCON-CHANNEL
100
AcDbLine
 10
-199.0478393321532
 20
91.38832960255456
 30
0.0
 11
-215.2978393321531
 21
91.38832960255459
 31
0.0
  0
TEXT
  5
6A
330
2
100
AcDbEntity
  8
ANCON-TEXT
100
AcDbText
 10
-388.3538807824293
 20
-59.59282782648878
 30
0.0
 40
9.0
  1

  7
ROMANS
100
AcDbText
  0
TEXT
  5
6B
330
2
100
AcDbEntity
  8
ANCON-TEXT
100
AcDbText
 10
-388.3538807824293
 20
-45.23572445620127
 30
0.0
 40
9.0
  1

  7
ROMANS
100
AcDbText
  0
ARC
  5
E2
330
2
100
AcDbEntity
  8
ANCON-CHANNEL
100
AcDbCircle
 10
-276.7132350336599
 20
192.019974096151
 30
0.0
 40
11.03714707831905
100
AcDbArc
 50
44.28564480206253
 51
135.7143551979363
  0
ARC
  5
E3
330
2
100
AcDbEntity
  8
ANCON-CHANNEL
100
AcDbCircle
 10
-276.7132350336599
 20
191.7462942600999
 30
0.0
 40
8.810826914370212
100
AcDbArc
 50
48.91904114684436
 51
131.0809588531533
  0
ARC
  5
E4
330
2
100
AcDbEntity
  8
ANCON-CHANNEL
100
AcDbCircle
 10
-276.7132350336599
 20
138.8679480888412
 30
0.0
 40
8.810826914370212
100
AcDbArc
 50
228.9190411468466
 51
311.0809588531556
  0
ARC
  5
E5
330
2
100
AcDbEntity
  8
ANCON-CHANNEL
100
AcDbCircle
 10
-276.7132350336599
 20
138.5942682527901
 30
0.0
 40
11.03714707831905
100
AcDbArc
 50
224.2856448020636
 51
315.7143551979375
  0
LINE
  5
E6
330
2
100
AcDbEntity
  8
ANCON-CHANNEL
100
AcDbLine
 10
-194.2978393321531
 20
215.3071211744705
 30
0.0
 11
-221.2978393321531
 21
215.3071211744705
 31
0.0
  0
LINE
  5
E7
330
2
100
AcDbEntity
  8
ANCON-CHANNEL
100
AcDbLine
 10
-221.2978393321531
 20
115.3071211744706
 30
0.0
 11
-194.2978393321531
 21
115.3071211744706
 31
0.0
  0
LINE
  5
E8
330
2
100
AcDbEntity
  8
ANCON-CHANNEL
100
AcDbLine
 10
-177.9102891202073
 20
152.9444513539974
 30
0.0
 11
-177.9102891202073
 21
177.6697909949436
 31
0.0
  0
LINE
  5
E9
330
2
100
AcDbEntity
  8
ANCON-CHANNEL
100
AcDbLine
 10
-162.4311891202071
 20
152.9444513539974
 30
0.0
 11
-162.4311891202071
 21
177.6697909949436
 31
0.0
  0
LINE
  5
EA
330
2
100
AcDbEntity
  8
ANCON-CHANNEL
100
AcDbLine
 10
-194.2978393321531
 20
115.3071211744706
 30
0.0
 11
-194.2978393321531
 21
215.3071211744705
 31
0.0
  0
ARC
  5
EB
330
2
100
AcDbEntity
  8
ANCON-CHANNEL
100
AcDbCircle
 10
-173.1408706860957
 20
152.9444513539971
 30
0.0
 40
4.769418434111595
100
AcDbArc
 50
120.0459147637353
 51
239.9540852362646
  0
LINE
  5
EC
330
2
100
AcDbEntity
  8
ANCON-CHANNEL
100
AcDbLine
 10
-181.4065945155345
 20
147.4466211744706
 30
0.0
 11
-181.4065945155345
 21
183.1676211744706
 31
0.0
  0
LINE
  5
ED
330
2
100
AcDbEntity
  8
ANCON-CHANNEL
100
AcDbLine
 10
-177.9102891202073
 20
165.3071211744706
 30
0.0
 11
-177.9102891202073
 21
147.4466211744706
 31
0.0
  0
ARC
  5
EE
330
2
100
AcDbEntity
  8
ANCON-CHANNEL
100
AcDbCircle
 10
-167.2006075543198
 20
152.9444513539974
 30
0.0
 40
4.769418434112365
100
AcDbArc
 50
300.0459147637397
 51
59.95408523625296
  0
LINE
  5
EF
330
2
100
AcDbEntity
  8
ANCON-CHANNEL
100
AcDbLine
 10
-175.5288891202073
 20
148.8159261744703
 30
0.0
 11
-164.8125891202062
 21
148.8159261744703
 31
0.0
  0
LINE
  5
F0
330
2
100
AcDbEntity
  8
ANCON-CHANNEL
100
AcDbLine
 10
-177.9102891202073
 20
147.4466211744706
 30
0.0
 11
-181.4065945155345
 21
147.4466211744706
 31
0.0
  0
LINE
  5
F1
330
2
100
AcDbEntity
  8
ANCON-CHANNEL
100
AcDbLine
 10
-175.5288891202073
 20
181.7983161744702
 30
0.0
 11
-164.8125891202074
 21
181.7983161744702
 31
0.0
  0
LINE
  5
F2
330
2
100
AcDbEntity
  8
ANCON-CHANNEL
100
AcDbLine
 10
-175.5288891202077
 20
157.0729765335244
 30
0.0
 11
-164.8125891202069
 21
157.0729765335244
 31
0.0
  0
LINE
  5
F3
330
2
100
AcDbEntity
  8
ANCON-CHANNEL
100
AcDbLine
 10
-175.5288891202073
 20
173.5412658154171
 30
0.0
 11
-164.8125891202065
 21
173.5412658154171
 31
0.0
  0
ARC
  5
F4
330
2
100
AcDbEntity
  8
ANCON-CHANNEL
100
AcDbCircle
 10
-167.2006075543191
 20
177.6697909949434
 30
0.0
 40
4.76941843411174
100
AcDbArc
 50
300.0459147637484
 51
59.95408523626467
  0
ARC
  5
F5
330
2
100
AcDbEntity
  8
ANCON-CHANNEL
100
AcDbCircle
 10
-177.8574518077071
 20
165.3071211744707
 30
0.0
 40
15.42626268749983
100
AcDbArc
 50
327.7391653073656
 51
32.2608346926344
  0
LINE
  5
F6
330
2
100
AcDbEntity
  8
ANCON-CHANNEL
100
AcDbLine
 10
-155.8823391202075
 20
173.64202117447
 30
0.0
 11
-153.5009391202073
 21
171.26062117447
 31
0.0
  0
LINE
  5
F7
330
2
100
AcDbEntity
  8
ANCON-CHANNEL
100
AcDbLine
 10
-155.8823391202075
 20
173.64202117447
 30
0.0
 11
-162.4311891202071
 21
173.64202117447
 31
0.0
  0
LINE
  5
F8
330
2
100
AcDbEntity
  8
ANCON-CHANNEL
100
AcDbLine
 10
-153.5009391202073
 20
159.94897117447
 30
0.0
 11
-155.8823391202075
 21
157.56757117447
 31
0.0
  0
LINE
  5
F9
330
2
100
AcDbEntity
  8
ANCON-CHANNEL
100
AcDbLine
 10
-155.8823391202075
 20
157.56757117447
 30
0.0
 11
-162.4311891202071
 21
157.56757117447
 31
0.0
  0
LINE
  5
FA
330
2
100
AcDbEntity
  8
ANCON-CHANNEL
100
AcDbLine
 10
-153.5009391202073
 20
159.94897117447
 30
0.0
 11
-153.5009391202073
 21
171.26062117447
 31
0.0
  0
ARC
  5
FB
330
2
100
AcDbEntity
  8
ANCON-CHANNEL
100
AcDbCircle
 10
-173.1408706860965
 20
177.6697909949438
 30
0.0
 40
4.769418434110749
100
AcDbArc
 50
120.0459147637294
 51
239.9540852362705
  0
LINE
  5
FC
330
2
100
AcDbEntity
  8
ANCON-CHANNEL
100
AcDbLine
 10
-177.9102891202073
 20
183.1676211744706
 30
0.0
 11
-177.9102891202073
 21
165.3071211744706
 31
0.0
  0
ARC
  5
FD
330
2
100
AcDbEntity
  8
ANCON-CHANNEL
100
AcDbCircle
 10
-162.4840264327074
 20
165.3071211744709
 30
0.0
 40
15.4262626874999
100
AcDbArc
 50
147.7391653073655
 51
212.2608346926344
  0
LINE
  5
FE
330
2
100
AcDbEntity
  8
ANCON-CHANNEL
100
AcDbLine
 10
-181.4065945155345
 20
183.1676211744706
 30
0.0
 11
-177.9102891202073
 21
183.1676211744706
 31
0.0
  0
LINE
  5
FF
330
2
100
AcDbEntity
  8
ANCON-CHANNEL
100
AcDbLine
 10
-202.2978393321531
 20
154.9054211744706
 30
0.0
 11
-199.4694122074069
 21
157.7338482992168
 31
0.0
  0
LINE
  5
100
330
2
100
AcDbEntity
  8
ANCON-CHANNEL
100
AcDbLine
 10
-210.2978393321531
 20
156.0571211744706
 30
0.0
 11
-210.2978393321531
 21
174.0571211744705
 31
0.0
  0
LINE
  5
101
330
2
100
AcDbEntity
  8
ANCON-CHANNEL
100
AcDbLine
 10
-217.3677601721269
 20
196.8071211744703
 30
0.0
 11
-217.3677601721269
 21
133.8071211744708
 31
0.0
  0
LINE
  5
102
330
2
100
AcDbEntity
  8
ANCON-CHANNEL
100
AcDbLine
 10
-214.8677601721264
 20
196.8071211744703
 30
0.0
 11
-214.8677601721264
 21
133.8071211744708
 31
0.0
  0
LINE
  5
103
330
2
100
AcDbEntity
  8
ANCON-CHANNEL
100
AcDbLine
 10
-221.2978393321531
 20
197.8071211744703
 30
0.0
 11
-221.2978393321531
 21
132.8071211744708
 31
0.0
  0
LINE
  5
104
330
2
100
AcDbEntity
  8
ANCON-CHANNEL
100
AcDbLine
 10
-217.3677601721269
 20
197.4788912226841
 30
0.0
 11
-217.3677601721269
 21
133.1353511262965
 31
0.0
  0
ARC
  5
105
330
2
100
AcDbEntity
  8
ANCON-CHANNEL
100
AcDbCircle
 10
-236.1449004316445
 20
140.5180285400241
 30
0.0
 40
7.790467262004838
100
AcDbArc
 50
232.3330981088851
 51
277.1293082703848
  0
ARC
  5
106
330
2
100
AcDbEntity
  8
ANCON-CHANNEL
100
AcDbCircle
 10
-236.1449004316445
 20
140.5180285400241
 30
0.0
 40
10.29046726200483
100
AcDbArc
 50
232.3330981088851
 51
277.1293082703848
  0
LINE
  5
107
330
2
100
AcDbEntity
  8
ANCON-CHANNEL
100
AcDbLine
 10
-202.2978393321531
 20
120.9640211744705
 30
0.0
 11
-199.4694122074069
 21
123.7924482992167
 31
0.0
  0
LINE
  5
108
330
2
100
AcDbEntity
  8
ANCON-CHANNEL
100
AcDbLine
 10
-221.2978393321531
 20
130.3071211744708
 30
0.0
 11
-221.2978393321531
 21
115.3071211744706
 31
0.0
  0
LINE
  5
109
330
2
100
AcDbEntity
  8
ANCON-CHANNEL
100
AcDbLine
 10
-216.2978393321531
 20
115.3071211744706
 30
0.0
 11
-216.2978393321531
 21
130.9848122409433
 31
0.0
  0
LINE
  5
10A
330
2
100
AcDbEntity
  8
ANCON-CHANNEL
100
AcDbLine
 10
-199.4694122074069
 20
118.1355482992168
 30
0.0
 11
-202.2978393321531
 21
120.963975423963
 31
0.0
  0
LINE
  5
10B
330
2
100
AcDbEntity
  8
ANCON-CHANNEL
100
AcDbLine
 10
-202.2978393321531
 20
115.3071211744706
 30
0.0
 11
-199.4694122074069
 21
118.1355482992168
 31
0.0
  0
ARC
  5
10C
330
2
100
AcDbEntity
  8
ANCON-CHANNEL
100
AcDbCircle
 10
-218.3677601721269
 20
133.8071211744708
 30
0.0
 40
3.5
100
AcDbArc
 50
270.0
 51
0.0
  0
LINE
  5
10D
330
2
100
AcDbEntity
  8
ANCON-CHANNEL
100
AcDbLine
 10
-202.2978393321531
 20
137.9347211744706
 30
0.0
 11
-199.4694122074069
 21
140.7631482992168
 31
0.0
  0
LINE
  5
10E
330
2
100
AcDbEntity
  8
ANCON-CHANNEL
100
AcDbLine
 10
-199.4694122074069
 20
135.1062482992167
 30
0.0
 11
-202.2978393321531
 21
137.934675423963
 31
0.0
  0
LINE
  5
10F
330
2
100
AcDbEntity
  8
ANCON-CHANNEL
100
AcDbLine
 10
-199.4694122074069
 20
123.7924482992167
 30
0.0
 11
-202.2978393321531
 21
126.6208754239629
 31
0.0
  0
LINE
  5
110
330
2
100
AcDbEntity
  8
ANCON-CHANNEL
100
AcDbLine
 10
-199.4694122074069
 20
129.4493482992168
 30
0.0
 11
-202.2978393321531
 21
132.277775423963
 31
0.0
  0
LINE
  5
111
330
2
100
AcDbEntity
  8
ANCON-CHANNEL
100
AcDbLine
 10
-202.2978393321531
 20
126.6209211744706
 30
0.0
 11
-199.4694122074069
 21
129.4493482992168
 31
0.0
  0
LINE
  5
112
330
2
100
AcDbEntity
  8
ANCON-CHANNEL
100
AcDbLine
 10
-202.2978393321531
 20
132.2778211744705
 30
0.0
 11
-199.4694122074069
 21
135.1062482992167
 31
0.0
  0
LINE
  5
113
330
2
100
AcDbEntity
  8
ANCON-CHANNEL
100
AcDbLine
 10
-201.146139332153
 20
156.0571211744704
 30
0.0
 11
-210.2978393321531
 21
156.0571211744706
 31
0.0
  0
LINE
  5
114
330
2
100
AcDbEntity
  8
ANCON-CHANNEL
100
AcDbLine
 10
-199.4694122074069
 20
140.7631482992168
 30
0.0
 11
-202.2978393321531
 21
143.591575423963
 31
0.0
  0
LINE
  5
115
330
2
100
AcDbEntity
  8
ANCON-CHANNEL
100
AcDbLine
 10
-199.4694122074069
 20
146.4200482992167
 30
0.0
 11
-202.2978393321531
 21
149.248475423963
 31
0.0
  0
LINE
  5
116
330
2
100
AcDbEntity
  8
ANCON-CHANNEL
100
AcDbLine
 10
-202.2978393321531
 20
149.2485211744706
 30
0.0
 11
-199.4694122074069
 21
152.0769482992168
 31
0.0
  0
LINE
  5
117
330
2
100
AcDbEntity
  8
ANCON-CHANNEL
100
AcDbLine
 10
-202.2978393321531
 20
143.5916211744705
 30
0.0
 11
-199.4694122074069
 21
146.4200482992167
 31
0.0
  0
LINE
  5
118
330
2
100
AcDbEntity
  8
ANCON-CHANNEL
100
AcDbLine
 10
-199.4694122074069
 20
152.0769482992168
 30
0.0
 11
-202.2978393321531
 21
154.905375423963
 31
0.0
  0
LINE
  5
119
330
2
100
AcDbEntity
  8
ANCON-CHANNEL
100
AcDbLine
 10
-218.3677601721269
 20
132.8071211744708
 30
0.0
 11
-234.8677601721264
 21
132.8071211744708
 31
0.0
  0
LINE
  5
11A
330
2
100
AcDbEntity
  8
ANCON-CHANNEL
100
AcDbLine
 10
-218.3677601721269
 20
130.3071211744708
 30
0.0
 11
-234.8677601721264
 21
130.3071211744708
 31
0.0
  0
ARC
  5
11B
330
2
100
AcDbEntity
  8
ANCON-CHANNEL
100
AcDbCircle
 10
-218.3677601721269
 20
133.8071211744708
 30
0.0
 40
1.0
100
AcDbArc
 50
270.0
 51
0.0
  0
LINE
  5
11C
330
2
100
AcDbEntity
  8
ANCON-CHANNEL
100
AcDbLine
 10
-217.3677601721269
 20
131.8804848697089
 30
0.0
 11
-217.3677601721269
 21
131.8241958301278
 31
0.0
  0
LINE
  5
11D
330
2
100
AcDbEntity
  8
ANCON-CHANNEL
100
AcDbLine
 10
-234.8677601721264
 20
132.8071211744708
 30
0.0
 11
-235.1780328320068
 21
132.7877926312604
 31
0.0
  0
ARC
  5
11E
330
2
100
AcDbEntity
  8
ANCON-CHANNEL
100
AcDbCircle
 10
-254.8677601721264
 20
134.7275757199257
 30
0.0
 40
4.670454545454523
100
AcDbArc
 50
212.3784125140545
 51
327.6215874859454
  0
ARC
  5
11F
330
2
100
AcDbEntity
  8
ANCON-CHANNEL
100
AcDbCircle
 10
-254.8677601721264
 20
134.7275757199257
 30
0.0
 40
7.170454545454523
100
AcDbArc
 50
212.3784125140545
 51
327.6215874859454
  0
ARC
  5
120
330
2
100
AcDbEntity
  8
ANCON-CHANNEL
100
AcDbCircle
 10
-244.8677601721264
 20
128.3866666290158
 30
0.0
 40
4.670454545454523
100
AcDbArc
 50
58.58112072523964
 51
147.6215874859454
  0
ARC
  5
121
330
2
100
AcDbEntity
  8
ANCON-CHANNEL
100
AcDbCircle
 10
-244.8677601721264
 20
128.3866666290158
 30
0.0
 40
7.170454545454523
100
AcDbArc
 50
57.91381076172176
 51
147.6215874859454
  0
LINE
  5
122
330
2
100
AcDbEntity
  8
ANCON-CHANNEL
100
AcDbLine
 10
-240.9054202588521
 20
134.3512764665959
 30
0.0
 11
-241.0588550797162
 21
134.4618341481416
 31
0.0
  0
ARC
  5
123
330
2
100
AcDbEntity
  8
ANCON-CHANNEL
100
AcDbCircle
 10
-264.8677601721263
 20
128.3866666290158
 30
0.0
 40
4.670454545454523
100
AcDbArc
 50
32.37841251405454
 51
147.6215874859454
  0
ARC
  5
124
330
2
100
AcDbEntity
  8
ANCON-CHANNEL
100
AcDbCircle
 10
-264.8677601721263
 20
128.3866666290158
 30
0.0
 40
7.170454545454523
100
AcDbArc
 50
32.37841251405454
 51
147.6215874859454
  0
ARC
  5
125
330
2
100
AcDbEntity
  8
ANCON-CHANNEL
100
AcDbCircle
 10
-236.1449004316445
 20
190.096213808917
 30
0.0
 40
7.790467262004838
100
AcDbArc
 50
82.87069172961521
 51
127.6669018911148
  0
ARC
  5
126
330
2
100
AcDbEntity
  8
ANCON-CHANNEL
100
AcDbCircle
 10
-236.1449004316445
 20
190.096213808917
 30
0.0
 40
10.29046726200483
100
AcDbArc
 50
82.87069172961521
 51
127.6669018911148
  0
LINE
  5
127
330
2
100
AcDbEntity
  8
ANCON-CHANNEL
100
AcDbLine
 10
-202.2978393321531
 20
188.8468211744704
 30
0.0
 11
-199.4694122074069
 21
191.6752482992166
 31
0.0
  0
LINE
  5
128
330
2
100
AcDbEntity
  8
ANCON-CHANNEL
100
AcDbLine
 10
-202.2978393321531
 20
171.8761211744705
 30
0.0
 11
-199.4694122074069
 21
174.7045482992167
 31
0.0
  0
LINE
  5
129
330
2
100
AcDbEntity
  8
ANCON-CHANNEL
100
AcDbLine
 10
-202.2978393321531
 20
160.5623211744706
 30
0.0
 11
-199.4694122074069
 21
163.3907482992168
 31
0.0
  0
LINE
  5
12A
330
2
100
AcDbEntity
  8
ANCON-CHANNEL
100
AcDbLine
 10
-199.4694122074069
 20
157.7338482992168
 30
0.0
 11
-202.2978393321531
 21
160.562275423963
 31
0.0
  0
LINE
  5
12B
330
2
100
AcDbEntity
  8
ANCON-CHANNEL
100
AcDbLine
 10
-202.2978393321531
 20
166.2192211744705
 30
0.0
 11
-199.4694122074069
 21
169.0476482992167
 31
0.0
  0
LINE
  5
12C
330
2
100
AcDbEntity
  8
ANCON-CHANNEL
100
AcDbLine
 10
-199.4694122074069
 20
163.3907482992168
 30
0.0
 11
-202.2978393321531
 21
166.219175423963
 31
0.0
  0
LINE
  5
12D
330
2
100
AcDbEntity
  8
ANCON-CHANNEL
100
AcDbLine
 10
-199.4694122074069
 20
169.0476482992167
 30
0.0
 11
-202.2978393321531
 21
171.8760754239629
 31
0.0
  0
LINE
  5
12E
330
2
100
AcDbEntity
  8
ANCON-CHANNEL
100
AcDbLine
 10
-200.1168393321531
 20
174.0571211744705
 30
0.0
 11
-210.2978393321531
 21
174.0571211744705
 31
0.0
  0
LINE
  5
12F
330
2
100
AcDbEntity
  8
ANCON-CHANNEL
100
AcDbLine
 10
-199.4694122074069
 20
180.3614482992167
 30
0.0
 11
-202.2978393321531
 21
183.189875423963
 31
0.0
  0
LINE
  5
130
330
2
100
AcDbEntity
  8
ANCON-CHANNEL
100
AcDbLine
 10
-202.2978393321531
 20
177.5330211744705
 30
0.0
 11
-199.4694122074069
 21
180.3614482992167
 31
0.0
  0
LINE
  5
131
330
2
100
AcDbEntity
  8
ANCON-CHANNEL
100
AcDbLine
 10
-202.2978393321531
 20
183.1899211744705
 30
0.0
 11
-199.4694122074069
 21
186.0183482992167
 31
0.0
  0
LINE
  5
132
330
2
100
AcDbEntity
  8
ANCON-CHANNEL
100
AcDbLine
 10
-199.4694122074069
 20
174.7045482992167
 30
0.0
 11
-202.2978393321531
 21
177.5329754239629
 31
0.0
  0
LINE
  5
133
330
2
100
AcDbEntity
  8
ANCON-CHANNEL
100
AcDbLine
 10
-199.4694122074069
 20
186.0183482992167
 30
0.0
 11
-202.2978393321531
 21
188.8467754239629
 31
0.0
  0
ARC
  5
134
330
2
100
AcDbEntity
  8
ANCON-CHANNEL
100
AcDbCircle
 10
-218.3677601721269
 20
196.8071211744703
 30
0.0
 40
3.5
100
AcDbArc
 50
0.0
 51
90.0
  0
LINE
  5
135
330
2
100
AcDbEntity
  8
ANCON-CHANNEL
100
AcDbLine
 10
-202.2978393321531
 20
205.8175211744705
 30
0.0
 11
-199.4694122074069
 21
208.6459482992167
 31
0.0
  0
LINE
  5
136
330
2
100
AcDbEntity
  8
ANCON-CHANNEL
100
AcDbLine
 10
-199.4694122074069
 20
197.3321482992167
 30
0.0
 11
-202.2978393321531
 21
200.1605754239629
 31
0.0
  0
LINE
  5
137
330
2
100
AcDbEntity
  8
ANCON-CHANNEL
100
AcDbLine
 10
-202.2978393321531
 20
200.1606211744705
 30
0.0
 11
-199.4694122074069
 21
202.9890482992167
 31
0.0
  0
LINE
  5
138
330
2
100
AcDbEntity
  8
ANCON-CHANNEL
100
AcDbLine
 10
-199.4694122074069
 20
191.6752482992166
 30
0.0
 11
-202.2978393321531
 21
194.5036754239629
 31
0.0
  0
LINE
  5
139
330
2
100
AcDbEntity
  8
ANCON-CHANNEL
100
AcDbLine
 10
-202.2978393321531
 20
194.5037211744705
 30
0.0
 11
-199.4694122074069
 21
197.3321482992167
 31
0.0
  0
LINE
  5
13A
330
2
100
AcDbEntity
  8
ANCON-CHANNEL
100
AcDbLine
 10
-199.4694122074069
 20
202.9890482992167
 30
0.0
 11
-202.2978393321531
 21
205.8174754239629
 31
0.0
  0
LINE
  5
13B
330
2
100
AcDbEntity
  8
ANCON-CHANNEL
100
AcDbLine
 10
-199.4694122074069
 20
214.3028482992167
 30
0.0
 11
-200.4736850826606
 21
215.3071211744705
 31
0.0
  0
LINE
  5
13C
330
2
100
AcDbEntity
  8
ANCON-CHANNEL
100
AcDbLine
 10
-199.4694122074069
 20
208.6459482992167
 30
0.0
 11
-202.2978393321531
 21
211.4743754239629
 31
0.0
  0
LINE
  5
13D
330
2
100
AcDbEntity
  8
ANCON-CHANNEL
100
AcDbLine
 10
-202.2978393321531
 20
211.4744211744705
 30
0.0
 11
-199.4694122074069
 21
214.3028482992167
 31
0.0
  0
LINE
  5
13E
330
2
100
AcDbEntity
  8
ANCON-CHANNEL
100
AcDbLine
 10
-221.2978393321531
 20
215.3071211744705
 30
0.0
 11
-221.2978393321531
 21
200.3071211744703
 31
0.0
  0
LINE
  5
13F
330
2
100
AcDbEntity
  8
ANCON-CHANNEL
100
AcDbLine
 10
-216.2978393321531
 20
199.6294301079931
 30
0.0
 11
-216.2978393321531
 21
215.3071211744705
 31
0.0
  0
LINE
  5
140
330
2
100
AcDbEntity
  8
ANCON-CHANNEL
100
AcDbLine
 10
-218.3677601721269
 20
200.3071211744703
 30
0.0
 11
-234.8677601721264
 21
200.3071211744703
 31
0.0
  0
LINE
  5
141
330
2
100
AcDbEntity
  8
ANCON-CHANNEL
100
AcDbLine
 10
-218.3677601721269
 20
197.8071211744703
 30
0.0
 11
-234.8677601721264
 21
197.8071211744703
 31
0.0
  0
ARC
  5
142
330
2
100
AcDbEntity
  8
ANCON-CHANNEL
100
AcDbCircle
 10
-218.3677601721269
 20
196.8071211744703
 30
0.0
 40
1.0
100
AcDbArc
 50
0.0
 51
90.0
  0
LINE
  5
143
330
2
100
AcDbEntity
  8
ANCON-CHANNEL
100
AcDbLine
 10
-234.8677601721264
 20
197.8071211744703
 30
0.0
 11
-235.1780328320068
 21
197.8264497176807
 31
0.0
  0
ARC
  5
144
330
2
100
AcDbEntity
  8
ANCON-CHANNEL
100
AcDbCircle
 10
-254.8677601721264
 20
195.8866666290154
 30
0.0
 40
7.170454545454523
100
AcDbArc
 50
32.37841251405454
 51
147.6215874859454
  0
ARC
  5
145
330
2
100
AcDbEntity
  8
ANCON-CHANNEL
100
AcDbCircle
 10
-254.8677601721264
 20
195.8866666290154
 30
0.0
 40
4.670454545454523
100
AcDbArc
 50
32.37841251405454
 51
147.6215874859454
  0
ARC
  5
146
330
2
100
AcDbEntity
  8
ANCON-CHANNEL
100
AcDbCircle
 10
-244.8677601721264
 20
202.2275757199253
 30
0.0
 40
4.670454545454523
100
AcDbArc
 50
212.3784125140545
 51
301.4188792747603
  0
ARC
  5
147
330
2
100
AcDbEntity
  8
ANCON-CHANNEL
100
AcDbCircle
 10
-244.8677601721264
 20
202.2275757199253
 30
0.0
 40
7.170454545454523
100
AcDbArc
 50
212.3784125140545
 51
302.0861892382782
  0
LINE
  5
148
330
2
100
AcDbEntity
  8
ANCON-CHANNEL
100
AcDbLine
 10
-240.9054202588521
 20
196.2629658823452
 30
0.0
 11
-241.0588550797162
 21
196.1524082007995
 31
0.0
  0
ARC
  5
149
330
2
100
AcDbEntity
  8
ANCON-CHANNEL
100
AcDbCircle
 10
-264.8677601721263
 20
202.2275757199253
 30
0.0
 40
7.170454545454523
100
AcDbArc
 50
212.3784125140545
 51
327.6215874859454
  0
ARC
  5
14A
330
2
100
AcDbEntity
  8
ANCON-CHANNEL
100
AcDbCircle
 10
-264.8677601721263
 20
202.2275757199253
 30
0.0
 40
4.670454545454523
100
AcDbArc
 50
212.3784125140545
 51
327.6215874859454
  0
LINE
  5
14B
330
2
100
AcDbEntity
  8
ANCON-CHANNEL
100
AcDbLine
 10
-284.6143720832927
 20
130.8877353779261
 30
0.0
 11
-282.5030477070934
 21
132.2265069710164
 31
0.0
  0
LINE
  5
14C
330
2
100
AcDbEntity
  8
ANCON-CHANNEL
100
AcDbLine
 10
-284.6143720832927
 20
199.726506971015
 30
0.0
 11
-282.5030477070934
 21
198.3877353779247
 31
0.0
  0
ENDSEC
  0
SECTION
  2
OBJECTS
  0
DICTIONARY
  5
7
330
0
100
AcDbDictionary
281
     1
  3
ACAD_GROUP
350
1F
  3
ACAD_LAYOUT
350
B
  3
ACAD_MLINESTYLE
350
20
  3
ACAD_PLOTSETTINGS
350
21
  3
ACAD_PLOTSTYLENAME
350
6
  0
DICTIONARY
  5
1F
102
{ACAD_REACTORS
330
7
102
}
330
7
100
AcDbDictionary
281
     1
  0
DICTIONARY
  5
B
102
{ACAD_REACTORS
330
7
102
}
330
7
100
AcDbDictionary
281
     1
  3
Layout1
350
F
  3
Model
350
A
  0
DICTIONARY
  5
20
102
{ACAD_REACTORS
330
7
102
}
330
7
100
AcDbDictionary
281
     1
  3
STANDARD
350
22
  0
DICTIONARY
  5
21
102
{ACAD_REACTORS
330
7
102
}
330
7
100
AcDbDictionary
281
     1
  0
ACDBDICTIONARYWDFLT
  5
6
102
{ACAD_REACTORS
330
7
102
}
330
7
100
AcDbDictionary
281
     1
  3
Normal
350
5
100
AcDbDictionaryWithDefault
340
5
  0
LAYOUT
  5
F
102
{ACAD_REACTORS
330
B
102
}
330
B
100
AcDbPlotSettings
  1

  2
Ancon 2
  4

  6

 40
0.0
 41
0.0
 42
0.0
 43
0.0
 44
0.0
 45
0.0
 46
0.0
 47
0.0
 48
0.0
 49
0.0
140
0.0
141
0.0
142
1.0
143
1.0
 70
   688
 72
     0
 73
     0
 74
     5
  7

 75
    16
147
1.0
148
0.0
149
0.0
100
AcDbLayout
  1
Layout1
 70
     1
 71
     1
 10
0.0
 20
0.0
 11
420.0
 21
297.0
 12
0.0
 22
0.0
 32
0.0
 14
1.000000000000000E+20
 24
1.000000000000000E+20
 34
1.000000000000000E+20
 15
-1.000000000000000E+20
 25
-1.000000000000000E+20
 35
-1.000000000000000E+20
146
0.0
 13
0.0
 23
0.0
 33
0.0
 16
1.0
 26
0.0
 36
0.0
 17
0.0
 27
1.0
 37
0.0
 76
     0
330
C
  0
LAYOUT
  5
A
102
{ACAD_REACTORS
330
B
102
}
330
B
100
AcDbPlotSettings
  1

  2
Ancon 2
  4

  6

 40
0.0
 41
0.0
 42
0.0
 43
0.0
 44
0.0
 45
0.0
 46
0.0
 47
0.0
 48
0.0
 49
0.0
140
0.0
141
0.0
142
1.0
143
1.0
 70
  1712
 72
     0
 73
     0
 74
     0
  7

 75
     0
147
1.0
148
0.0
149
0.0
100
AcDbLayout
  1
Model
 70
     1
 71
     0
 10
0.0
 20
0.0
 11
12.0
 21
9.0
 12
0.0
 22
0.0
 32
0.0
 14
0.0
 24
0.0
 34
0.0
 15
0.0
 25
0.0
 35
0.0
146
0.0
 13
0.0
 23
0.0
 33
0.0
 16
1.0
 26
0.0
 36
0.0
 17
0.0
 27
1.0
 37
0.0
 76
     0
330
2
  0
MLINESTYLE
  5
22
102
{ACAD_REACTORS
330
20
102
}
330
20
100
AcDbMlineStyle
  2
STANDARD
 70
     0
  3

 62
   256
 51
90.0
 52
90.0
 71
     2
 49
0.5
 62
   256
  6
BYLAYER
 49
-0.5
 62
   256
  6
BYLAYER
  0
ACDBPLACEHOLDER
  5
5
102
{ACAD_REACTORS
330
6
102
}
330
6
  0
ENDSEC
  0
EOF
