  0
SECTION
  2
HEADER
  9
$ACADVER
  1
AC1015
  9
$ACADMAINTVER
 70
    10
  9
$DWGCODEPAGE
  3
ANSI_1252
  9
$INSBASE
 10
2917.78114968498
 20
3090.835555455169
 30
0.0
  9
$EXTMIN
 10
2806.762691082501
 20
3036.562011432815
 30
0.0
  9
$EXTMAX
 10
2973.90554822536
 20
3115.804008003433
 30
0.0
  9
$LIMMIN
 10
0.0
 20
0.0
  9
$LIMMAX
 10
12.0
 20
9.0
  9
$ORTHOMODE
 70
     1
  9
$REGENMODE
 70
     1
  9
$FILLMODE
 70
     1
  9
$QTEXTMODE
 70
     0
  9
$MIRRTEXT
 70
     1
  9
$LTSCALE
 40
1.0
  9
$ATTMODE
 70
     1
  9
$TEXTSIZE
 40
9.0
  9
$TRACEWID
 40
0.05
  9
$TEXTSTYLE
  7
Standard
  9
$CLAYER
  8
GRID
  9
$CELTYPE
  6
ByLayer
  9
$CECOLOR
 62
   256
  9
$CELTSCALE
 40
1.0
  9
$DISPSILH
 70
     0
  9
$DIMSCALE
 40
10.0
  9
$DIMASZ
 40
2.0
  9
$DIMEXO
 40
4.5
  9
$DIMDLI
 40
0.0
  9
$DIMRND
 40
1.0
  9
$DIMDLE
 40
1.25
  9
$DIMEXE
 40
1.5
  9
$DIMTP
 40
0.0
  9
$DIMTM
 40
0.0
  9
$DIMTXT
 40
1.8
  9
$DIMCEN
 40
0.0
  9
$DIMTSZ
 40
0.0
  9
$DIMTOL
 70
     0
  9
$DIMLIM
 70
     0
  9
$DIMTIH
 70
     0
  9
$DIMTOH
 70
     0
  9
$DIMSE1
 70
     0
  9
$DIMSE2
 70
     0
  9
$DIMTAD
 70
     1
  9
$DIMZIN
 70
    12
  9
$DIMBLK
  1

  9
$DIMASO
 70
     1
  9
$DIMSHO
 70
     1
  9
$DIMPOST
  1

  9
$DIMAPOST
  1

  9
$DIMALT
 70
     0
  9
$DIMALTD
 70
     2
  9
$DIMALTF
 40
0.04
  9
$DIMLFAC
 40
1.0
  9
$DIMTOFL
 70
     0
  9
$DIMTVP
 40
0.0
  9
$DIMTIX
 70
     0
  9
$DIMSOXD
 70
     0
  9
$DIMSAH
 70
     0
  9
$DIMBLK1
  1

  9
$DIMBLK2
  1

  9
$DIMSTYLE
  2
1-10
  9
$DIMCLRD
 70
     0
  9
$DIMCLRE
 70
     0
  9
$DIMCLRT
 70
     0
  9
$DIMTFAC
 40
1.25
  9
$DIMGAP
 40
1.0
  9
$DIMJUST
 70
     0
  9
$DIMSD1
 70
     0
  9
$DIMSD2
 70
     0
  9
$DIMTOLJ
 70
     1
  9
$DIMTZIN
 70
    12
  9
$DIMALTZ
 70
    12
  9
$DIMALTTZ
 70
    12
  9
$DIMUPT
 70
     0
  9
$DIMDEC
 70
     2
  9
$DIMTDEC
 70
     2
  9
$DIMALTU
 70
     2
  9
$DIMALTTD
 70
     2
  9
$DIMTXSTY
  7
ROMANS
  9
$DIMAUNIT
 70
     0
  9
$DIMADEC
 70
     0
  9
$DIMALTRND
 40
0.0
  9
$DIMAZIN
 70
     0
  9
$DIMDSEP
 70
    46
  9
$DIMATFIT
 70
     3
  9
$DIMFRAC
 70
     0
  9
$DIMLDRBLK
  1

  9
$DIMLUNIT
 70
     2
  9
$DIMLWD
 70
    -2
  9
$DIMLWE
 70
    -2
  9
$DIMTMOVE
 70
     2
  9
$LUNITS
 70
     2
  9
$LUPREC
 70
     4
  9
$SKETCHINC
 40
0.1
  9
$FILLETRAD
 40
15.5
  9
$AUNITS
 70
     0
  9
$AUPREC
 70
     0
  9
$MENU
  1
.
  9
$ELEVATION
 40
0.0
  9
$PELEVATION
 40
0.0
  9
$THICKNESS
 40
0.0
  9
$LIMCHECK
 70
     0
  9
$CHAMFERA
 40
0.0
  9
$CHAMFERB
 40
0.0
  9
$CHAMFERC
 40
1.0
  9
$CHAMFERD
 40
0.0
  9
$SKPOLY
 70
     0
  9
$TDCREATE
 40
2452515.436260023
  9
$TDUCREATE
 40
2452515.394593356
  9
$TDUPDATE
 40
2452529.640912060
  9
$TDUUPDATE
 40
2452529.599245393
  9
$TDINDWG
 40
0.2181741204
  9
$TDUSRTIMER
 40
0.2181730440
  9
$USRTIMER
 70
     1
  9
$ANGBASE
 50
0.0
  9
$ANGDIR
 70
     0
  9
$PDMODE
 70
     0
  9
$PDSIZE
 40
0.0
  9
$PLINEWID
 40
0.0
  9
$SPLFRAME
 70
     0
  9
$SPLINETYPE
 70
     6
  9
$SPLINESEGS
 70
     8
  9
$HANDSEED
  5
87
  9
$SURFTAB1
 70
     6
  9
$SURFTAB2
 70
     6
  9
$SURFTYPE
 70
     6
  9
$SURFU
 70
     6
  9
$SURFV
 70
     6
  9
$UCSBASE
  2

  9
$UCSNAME
  2

  9
$UCSORG
 10
0.0
 20
0.0
 30
0.0
  9
$UCSXDIR
 10
1.0
 20
0.0
 30
0.0
  9
$UCSYDIR
 10
0.0
 20
1.0
 30
0.0
  9
$UCSORTHOREF
  2

  9
$UCSORTHOVIEW
 70
     0
  9
$UCSORGTOP
 10
0.0
 20
0.0
 30
0.0
  9
$UCSORGBOTTOM
 10
0.0
 20
0.0
 30
0.0
  9
$UCSORGLEFT
 10
0.0
 20
0.0
 30
0.0
  9
$UCSORGRIGHT
 10
0.0
 20
0.0
 30
0.0
  9
$UCSORGFRONT
 10
0.0
 20
0.0
 30
0.0
  9
$UCSORGBACK
 10
0.0
 20
0.0
 30
0.0
  9
$PUCSBASE
  2

  9
$PUCSNAME
  2

  9
$PUCSORG
 10
0.0
 20
0.0
 30
0.0
  9
$PUCSXDIR
 10
1.0
 20
0.0
 30
0.0
  9
$PUCSYDIR
 10
0.0
 20
1.0
 30
0.0
  9
$PUCSORTHOREF
  2

  9
$PUCSORTHOVIEW
 70
     0
  9
$PUCSORGTOP
 10
0.0
 20
0.0
 30
0.0
  9
$PUCSORGBOTTOM
 10
0.0
 20
0.0
 30
0.0
  9
$PUCSORGLEFT
 10
0.0
 20
0.0
 30
0.0
  9
$PUCSORGRIGHT
 10
0.0
 20
0.0
 30
0.0
  9
$PUCSORGFRONT
 10
0.0
 20
0.0
 30
0.0
  9
$PUCSORGBACK
 10
0.0
 20
0.0
 30
0.0
  9
$USERI1
 70
     0
  9
$USERI2
 70
     0
  9
$USERI3
 70
     0
  9
$USERI4
 70
     0
  9
$USERI5
 70
     0
  9
$USERR1
 40
0.0
  9
$USERR2
 40
0.0
  9
$USERR3
 40
0.0
  9
$USERR4
 40
0.0
  9
$USERR5
 40
0.0
  9
$WORLDVIEW
 70
     1
  9
$SHADEDGE
 70
     3
  9
$SHADEDIF
 70
    70
  9
$TILEMODE
 70
     1
  9
$MAXACTVP
 70
    64
  9
$PINSBASE
 10
0.0
 20
0.0
 30
0.0
  9
$PLIMCHECK
 70
     0
  9
$PEXTMIN
 10
7.777105839157954
 20
0.5792682657111623
 30
0.0
  9
$PEXTMAX
 10
197.6550712950588
 20
283.6213344614824
 30
0.0
  9
$PLIMMIN
 10
-1.784982416891718
 20
-7.730023936247521
  9
$PLIMMAX
 10
208.188345219827
 20
289.2382988176587
  9
$UNITMODE
 70
     0
  9
$VISRETAIN
 70
     1
  9
$PLINEGEN
 70
     0
  9
$PSLTSCALE
 70
     0
  9
$TREEDEPTH
 70
  3020
  9
$CMLSTYLE
  2
Standard
  9
$CMLJUST
 70
     0
  9
$CMLSCALE
 40
1.0
  9
$PROXYGRAPHICS
 70
     1
  9
$MEASUREMENT
 70
     1
  9
$CELWEIGHT
370
    -1
  9
$ENDCAPS
280
     0
  9
$JOINSTYLE
280
     0
  9
$LWDISPLAY
290
     0
  9
$INSUNITS
 70
     1
  9
$HYPERLINKBASE
  1

  9
$STYLESHEET
  1

  9
$XEDIT
290
     1
  9
$CEPSNTYPE
380
     0
  9
$PSTYLEMODE
290
     1
  9
$FINGERPRINTGUID
  2
{0F8F7604-0E20-11D5-8D50-00105A3DEFE9}
  9
$VERSIONGUID
  2
{D99571DE-92DA-4FFD-88EF-3945317320F4}
  9
$EXTNAMES
290
     1
  9
$PSVPSCALE
 40
0.0
  9
$OLESTARTUP
290
     0
  0
ENDSEC
  0
SECTION
  2
CLASSES
  0
CLASS
  1
ACDBDICTIONARYWDFLT
  2
AcDbDictionaryWithDefault
  3
AutoCAD 2000
 90
        0
280
     0
281
     0
  0
CLASS
  1
ACDBPLACEHOLDER
  2
AcDbPlaceHolder
  3
AutoCAD 2000
 90
        0
280
     0
281
     0
  0
CLASS
  1
LAYOUT
  2
AcDbLayout
  3
AutoCAD 2000
 90
        0
280
     0
281
     0
  0
CLASS
  1
DICTIONARYVAR
  2
AcDbDictionaryVar
  3
AutoCAD 2000
 90
    32768
280
     0
281
     0
  0
CLASS
  1
PLOTSETTINGS
  2
AcDbPlotSettings
  3
AutoCAD 2000
 90
    32768
280
     0
281
     0
  0
ENDSEC
  0
SECTION
  2
TABLES
  0
TABLE
  2
VPORT
  5
19
330
0
100
AcDbSymbolTable
 70
     4
  0
VPORT
  5
86
330
19
100
AcDbSymbolTableRecord
100
AcDbViewportTableRecord
  2
*Active
 70
     0
 10
0.0
 20
0.0
 11
1.0
 21
1.0
 12
2895.150440011944
 22
3058.459319217838
 13
0.0
 23
0.0
 14
0.5
 24
0.5
 15
0.5
 25
0.5
 16
0.0
 26
0.0
 36
1.0
 17
0.0
 27
0.0
 37
0.0
 40
186.8727201777612
 41
1.25
 42
50.0
 43
0.0
 44
0.0
 50
0.0
 51
0.0
 71
     0
 72
   100
 73
     1
 74
     3
 75
     0
 76
     0
 77
     0
 78
     0
281
     0
 65
     1
110
0.0
120
0.0
130
0.0
111
1.0
121
0.0
131
0.0
112
0.0
122
1.0
132
0.0
 79
     0
146
0.0
  0
ENDTAB
  0
TABLE
  2
LTYPE
  5
14
330
0
100
AcDbSymbolTable
 70
     2
  0
LTYPE
  5
15
330
14
100
AcDbSymbolTableRecord
100
AcDbLinetypeTableRecord
  2
ByBlock
 70
     0
  3

 72
    65
 73
     0
 40
0.0
  0
LTYPE
  5
16
330
14
100
AcDbSymbolTableRecord
100
AcDbLinetypeTableRecord
  2
ByLayer
 70
     0
  3

 72
    65
 73
     0
 40
0.0
  0
LTYPE
  5
8
330
14
100
AcDbSymbolTableRecord
100
AcDbLinetypeTableRecord
  2
Continuous
 70
     0
  3
Solid line
 72
    65
 73
     0
 40
0.0
  0
LTYPE
  5
28
330
14
100
AcDbSymbolTableRecord
100
AcDbLinetypeTableRecord
  2
GRID1_50
 70
     0
  3
________________  __  ________________  __
 72
    65
 73
     4
 40
1800.0
 49
1500.0
 74
     0
 49
-100.0
 74
     0
 49
100.0
 74
     0
 49
-100.0
 74
     0
  0
ENDTAB
  0
TABLE
  2
LAYER
  5
10
330
0
100
AcDbSymbolTable
 70
     5
  0
LAYER
  5
4
330
10
100
AcDbSymbolTableRecord
100
AcDbLayerTableRecord
  2
0
 70
     0
 62
     7
  6
Continuous
370
    -3
390
5
  0
LAYER
  5
34
330
10
100
AcDbSymbolTableRecord
100
AcDbLayerTableRecord
  2
DANCON
 70
     0
 62
     4
  6
Continuous
370
    -3
390
5
  0
LAYER
  5
27
330
10
100
AcDbSymbolTableRecord
100
AcDbLayerTableRecord
  2
GRID
 70
     0
 62
     1
  6
GRID1_50
370
    -3
390
5
  0
LAYER
  5
2D
330
10
100
AcDbSymbolTableRecord
100
AcDbLayerTableRecord
  2
ANCON-BOLT
 70
     0
 62
     1
  6
Continuous
370
    -3
390
5
  0
LAYER
  5
2B
330
10
100
AcDbSymbolTableRecord
100
AcDbLayerTableRecord
  2
ANCON-TEXT
 70
     0
 62
     6
  6
Continuous
370
    -3
390
5
  0
ENDTAB
  0
TABLE
  2
STYLE
  5
11
330
0
100
AcDbSymbolTable
 70
     2
  0
STYLE
  5
12
330
11
100
AcDbSymbolTableRecord
100
AcDbTextStyleTableRecord
  2
Standard
 70
     0
 40
9.0
 41
1.0
 50
0.0
 71
     0
 42
9.0
  3
romans.shx
  4

  0
STYLE
  5
1F
330
11
100
AcDbSymbolTableRecord
100
AcDbTextStyleTableRecord
  2
ROMANS
 70
     0
 40
0.0
 41
1.0
 50
0.0
 71
     0
 42
18.0
  3
ROMANS.SHX
  4

  0
ENDTAB
  0
TABLE
  2
VIEW
  5
17
330
0
100
AcDbSymbolTable
 70
     0
  0
ENDTAB
  0
TABLE
  2
UCS
  5
18
330
0
100
AcDbSymbolTable
 70
     0
  0
ENDTAB
  0
TABLE
  2
APPID
  5
1B
330
0
100
AcDbSymbolTable
 70
     1
  0
APPID
  5
1C
330
1B
100
AcDbSymbolTableRecord
100
AcDbRegAppTableRecord
  2
ACAD
 70
     0
  0
ENDTAB
  0
TABLE
  2
DIMSTYLE
  5
1D
330
0
100
AcDbSymbolTable
 70
     4
100
AcDbDimStyleTable
 71
     4
340
1E
340
20
340
21
340
22
  0
DIMSTYLE
105
1E
330
1D
100
AcDbSymbolTableRecord
100
AcDbDimStyleTableRecord
  2
1-10
 70
     0
 40
10.0
 41
2.0
 42
4.5
 43
0.0
 44
1.5
 45
1.0
 46
1.25
 73
     0
 74
     0
 77
     1
 78
    12
140
1.8
141
0.0
143
0.04
146
1.25
147
1.0
271
     2
272
     2
279
     2
284
    12
285
    12
286
    12
340
1F
  0
DIMSTYLE
105
22
330
1D
100
AcDbSymbolTableRecord
100
AcDbDimStyleTableRecord
  2
1-1
 70
     0
 41
2.0
 42
4.5
 43
0.0
 44
1.5
 45
1.0
 73
     0
 74
     0
 77
     1
 78
    12
140
1.8
141
0.0
146
1.25
147
0.8
279
     2
284
    12
285
    12
286
    12
340
1F
  0
DIMSTYLE
105
21
330
1D
100
AcDbSymbolTableRecord
100
AcDbDimStyleTableRecord
  2
1-2
 70
     0
 40
2.0
 41
2.0
 42
4.5
 43
0.0
 44
1.5
 45
1.0
 73
     0
 74
     0
 77
     1
 78
    12
140
1.8
141
0.0
146
1.25
147
0.8
279
     2
284
    12
285
    12
286
    12
340
1F
  0
DIMSTYLE
105
20
330
1D
100
AcDbSymbolTableRecord
100
AcDbDimStyleTableRecord
  2
1-5
 70
     0
 40
5.0
 41
2.0
 42
4.5
 43
0.0
 44
1.5
 45
1.0
 73
     0
 74
     0
 77
     1
 78
    12
140
1.8
141
0.0
146
1.25
147
1.0
284
    12
285
    12
286
    12
340
1F
  0
ENDTAB
  0
TABLE
  2
BLOCK_RECORD
  5
1
330
0
100
AcDbSymbolTable
 70
     0
  0
BLOCK_RECORD
  5
2
330
1
100
AcDbSymbolTableRecord
100
AcDbBlockTableRecord
  2
*Model_Space
340
A
  0
BLOCK_RECORD
  5
C
330
1
100
AcDbSymbolTableRecord
100
AcDbBlockTableRecord
  2
*Paper_Space
340
F
  0
ENDTAB
  0
ENDSEC
  0
SECTION
  2
BLOCKS
  0
BLOCK
  5
3
330
2
100
AcDbEntity
  8
0
100
AcDbBlockBegin
  2
*Model_Space
 70
     0
 10
0.0
 20
0.0
 30
0.0
  3
*Model_Space
  1

  0
ENDBLK
  5
9
330
2
100
AcDbEntity
  8
0
100
AcDbBlockEnd
  0
BLOCK
  5
D
330
C
100
AcDbEntity
 67
     1
  8
0
100
AcDbBlockBegin
  2
*Paper_Space
 70
     0
 10
0.0
 20
0.0
 30
0.0
  3
*Paper_Space
  1

  0
ENDBLK
  5
E
330
C
100
AcDbEntity
 67
     1
  8
0
100
AcDbBlockEnd
  0
ENDSEC
  0
SECTION
  2
ENTITIES
  0
TEXT
  5
2A
330
2
100
AcDbEntity
  8
ANCON-TEXT
100
AcDbText
 10
2806.33411965393
 20
3036.562011432816
 30
0.0
 40
9.0
  1
ANCON M10 STEEL GRIP
  7
ROMANS
100
AcDbText
  0
LINE
  5
2C
330
2
100
AcDbEntity
  8
ANCON-BOLT
100
AcDbLine
 10
2854.190980126057
 20
3103.860648701912
 30
0.0
 11
2859.474453057368
 21
3102.543330947872
 31
0.0
  0
LINE
  5
2E
330
2
100
AcDbEntity
  8
ANCON-BOLT
100
AcDbLine
 10
2854.190980126057
 20
3077.806871896934
 30
0.0
 11
2859.474453057368
 21
3079.124189650974
 31
0.0
  0
LINE
  5
2F
330
2
100
AcDbEntity
  8
ANCON-BOLT
100
AcDbLine
 10
2943.909345270352
 20
3090.835555455169
 30
0.0
 11
2835.15983622731
 21
3090.835555455169
 31
0.0
  0
LINE
  5
30
330
2
100
AcDbEntity
  8
ANCON-BOLT
100
AcDbLine
 10
2847.91495057986
 20
3103.860648701912
 30
0.0
 11
2847.91495057986
 21
3077.806871896934
 31
0.0
  0
LINE
  5
31
330
2
100
AcDbEntity
  8
ANCON-BOLT
100
AcDbLine
 10
2854.190980126057
 20
3077.806871896934
 30
0.0
 11
2854.190980126057
 21
3103.860648701912
 31
0.0
  0
LINE
  5
32
330
2
100
AcDbEntity
  8
ANCON-BOLT
100
AcDbLine
 10
2854.190980126057
 20
3077.806871896934
 30
0.0
 11
2847.91495057986
 21
3077.806871896934
 31
0.0
  0
LINE
  5
33
330
2
100
AcDbEntity
  8
DANCON
 62
     1
100
AcDbLine
 10
2844.968256480795
 20
3085.326555455169
 30
0.0
 11
2843.968256480795
 21
3086.326555455169
 31
0.0
  0
LINE
  5
35
330
2
100
AcDbEntity
  8
DANCON
 62
     1
100
AcDbLine
 10
2844.968256480795
 20
3096.344555455169
 30
0.0
 11
2843.968256480795
 21
3095.344555455169
 31
0.0
  0
LINE
  5
36
330
2
100
AcDbEntity
  8
DANCON
 62
     1
100
AcDbLine
 10
2843.968256480795
 20
3086.326555455169
 30
0.0
 11
2843.968256480795
 21
3095.344555455169
 31
0.0
  0
LINE
  5
37
330
2
100
AcDbEntity
  8
DANCON
 62
     1
100
AcDbLine
 10
2844.968256480795
 20
3085.326555455169
 30
0.0
 11
2844.968256480795
 21
3096.344555455169
 31
0.0
  0
LINE
  5
38
330
2
100
AcDbEntity
  8
DANCON
 62
     1
100
AcDbLine
 10
2847.914950579859
 20
3086.326555455169
 30
0.0
 11
2843.968256480795
 21
3086.326555455169
 31
0.0
  0
LINE
  5
39
330
2
100
AcDbEntity
  8
DANCON
 62
     1
100
AcDbLine
 10
2847.91495057986
 20
3085.326555455169
 30
0.0
 11
2844.968256480795
 21
3085.326555455169
 31
0.0
  0
LINE
  5
3A
330
2
100
AcDbEntity
  8
DANCON
 62
     1
100
AcDbLine
 10
2847.914950579859
 20
3095.344555455169
 30
0.0
 11
2843.968256480795
 21
3095.344555455169
 31
0.0
  0
LINE
  5
3B
330
2
100
AcDbEntity
  8
DANCON
 62
     1
100
AcDbLine
 10
2847.91495057986
 20
3096.344555455169
 30
0.0
 11
2844.968256480795
 21
3096.344555455169
 31
0.0
  0
LINE
  5
3C
330
2
100
AcDbEntity
  8
ANCON-BOLT
100
AcDbLine
 10
2854.190980126057
 20
3103.860648701912
 30
0.0
 11
2847.91495057986
 21
3103.860648701912
 31
0.0
  0
POINT
  5
3D
330
2
100
AcDbEntity
  8
ANCON-BOLT
  6
ByBlock
100
AcDbPoint
 10
2843.968256480795
 20
3092.199608265562
 30
0.0
  0
POINT
  5
3E
330
2
100
AcDbEntity
  8
ANCON-BOLT
  6
ByBlock
100
AcDbPoint
 10
2843.968256480795
 20
3092.199608265562
 30
0.0
  0
LINE
  5
3F
330
2
100
AcDbEntity
  8
ANCON-BOLT
100
AcDbLine
 10
2925.27755657341
 20
3065.867102906905
 30
0.0
 11
2917.27755657341
 21
3065.867102906905
 31
0.0
  0
LINE
  5
40
330
2
100
AcDbEntity
  8
ANCON-BOLT
100
AcDbLine
 10
2925.27755657341
 20
3115.804008003433
 30
0.0
 11
2918.28474279655
 21
3115.804008003433
 31
0.0
  0
LINE
  5
41
330
2
100
AcDbEntity
  8
ANCON-BOLT
100
AcDbLine
 10
2859.474453057368
 20
3103.864239013404
 30
0.0
 11
2859.474453057368
 21
3077.806871896934
 31
0.0
  0
LINE
  5
42
330
2
100
AcDbEntity
  8
ANCON-BOLT
100
AcDbLine
 10
2917.27755657341
 20
3078.488279652123
 30
0.0
 11
2919.648112398938
 21
3080.354244300025
 31
0.0
  0
LINE
  5
43
330
2
100
AcDbEntity
  8
ANCON-BOLT
100
AcDbLine
 10
2859.474453057368
 20
3077.806871896934
 30
0.0
 11
2918.530389984507
 21
3077.806871896934
 31
0.0
  0
LINE
  5
44
330
2
100
AcDbEntity
  8
ANCON-BOLT
100
AcDbLine
 10
2917.27755657341
 20
3065.867102906905
 30
0.0
 11
2921.456163204014
 21
3065.867102906905
 31
0.0
  0
LINE
  5
45
330
2
100
AcDbEntity
  8
ANCON-BOLT
100
AcDbLine
 10
2917.27755657341
 20
3069.02239709321
 30
0.0
 11
2919.648112398938
 21
3070.888361741112
 31
0.0
  0
LINE
  5
46
330
2
100
AcDbEntity
  8
ANCON-BOLT
100
AcDbLine
 10
2919.648112398938
 20
3070.888361741112
 30
0.0
 11
2917.27755657341
 21
3072.177691279514
 31
0.0
  0
LINE
  5
47
330
2
100
AcDbEntity
  8
ANCON-BOLT
100
AcDbLine
 10
2917.27755657341
 20
3065.867102906905
 30
0.0
 11
2919.648112398938
 21
3067.733067554808
 31
0.0
  0
LINE
  5
48
330
2
100
AcDbEntity
  8
ANCON-BOLT
100
AcDbLine
 10
2919.648112398938
 20
3067.733067554808
 30
0.0
 11
2917.27755657341
 21
3069.02239709321
 31
0.0
  0
LINE
  5
49
330
2
100
AcDbEntity
  8
ANCON-BOLT
100
AcDbLine
 10
2919.648112398938
 20
3077.198950113721
 30
0.0
 11
2917.27755657341
 21
3078.488279652123
 31
0.0
  0
LINE
  5
4A
330
2
100
AcDbEntity
  8
ANCON-BOLT
100
AcDbLine
 10
2917.27755657341
 20
3075.332985465818
 30
0.0
 11
2919.648112398938
 21
3077.198950113721
 31
0.0
  0
LINE
  5
4B
330
2
100
AcDbEntity
  8
ANCON-BOLT
100
AcDbLine
 10
2919.648112398938
 20
3074.043655927416
 30
0.0
 11
2917.27755657341
 21
3075.332985465818
 31
0.0
  0
LINE
  5
4C
330
2
100
AcDbEntity
  8
ANCON-BOLT
100
AcDbLine
 10
2917.27755657341
 20
3072.177691279514
 30
0.0
 11
2919.648112398938
 21
3074.043655927417
 31
0.0
  0
LINE
  5
4D
330
2
100
AcDbEntity
  8
ANCON-BOLT
100
AcDbLine
 10
2859.474453057367
 20
3080.873080073834
 30
0.0
 11
2890.246447817992
 21
3080.873080073834
 31
0.0
  0
LINE
  5
4E
330
2
100
AcDbEntity
  8
ANCON-BOLT
100
AcDbLine
 10
2859.474453057367
 20
3081.937080073834
 30
0.0
 11
2890.246447817992
 21
3081.937080073834
 31
0.0
  0
LINE
  5
4F
330
2
100
AcDbEntity
  8
ANCON-BOLT
100
AcDbLine
 10
2859.474453057367
 20
3099.734030836504
 30
0.0
 11
2890.246447817992
 21
3099.734030836504
 31
0.0
  0
LINE
  5
50
330
2
100
AcDbEntity
  8
ANCON-BOLT
100
AcDbLine
 10
2859.474453057368
 20
3100.798030836504
 30
0.0
 11
2890.246447817992
 21
3100.798030836504
 31
0.0
  0
LINE
  5
51
330
2
100
AcDbEntity
  8
ANCON-BOLT
100
AcDbLine
 10
2859.474453057368
 20
3103.864239013404
 30
0.0
 11
2917.447291930301
 21
3103.864239013404
 31
0.0
  0
LINE
  5
52
330
2
100
AcDbEntity
  8
ANCON-BOLT
100
AcDbLine
 10
2919.648112398938
 20
3086.664832672634
 30
0.0
 11
2917.27755657341
 21
3087.954162211036
 31
0.0
  0
LINE
  5
53
330
2
100
AcDbEntity
  8
ANCON-BOLT
100
AcDbLine
 10
2917.27755657341
 20
3087.954162211036
 30
0.0
 11
2919.648112398938
 21
3089.820126858939
 31
0.0
  0
LINE
  5
54
330
2
100
AcDbEntity
  8
ANCON-BOLT
100
AcDbLine
 10
2919.648112398938
 20
3089.820126858938
 30
0.0
 11
2917.27755657341
 21
3091.10945639734
 31
0.0
  0
LINE
  5
55
330
2
100
AcDbEntity
  8
ANCON-BOLT
100
AcDbLine
 10
2917.27755657341
 20
3084.798868024732
 30
0.0
 11
2919.648112398938
 21
3086.664832672635
 31
0.0
  0
LINE
  5
56
330
2
100
AcDbEntity
  8
ANCON-BOLT
100
AcDbLine
 10
2919.648112398938
 20
3083.50953848633
 30
0.0
 11
2917.27755657341
 21
3084.798868024732
 31
0.0
  0
LINE
  5
57
330
2
100
AcDbEntity
  8
ANCON-BOLT
100
AcDbLine
 10
2917.27755657341
 20
3081.643573838427
 30
0.0
 11
2919.648112398938
 21
3083.50953848633
 31
0.0
  0
LINE
  5
58
330
2
100
AcDbEntity
  8
ANCON-BOLT
100
AcDbLine
 10
2919.648112398938
 20
3080.354244300025
 30
0.0
 11
2917.27755657341
 21
3081.643573838427
 31
0.0
  0
LINE
  5
59
330
2
100
AcDbEntity
  8
ANCON-BOLT
100
AcDbLine
 10
2919.648112398938
 20
3099.286009417852
 30
0.0
 11
2917.27755657341
 21
3100.575338956254
 31
0.0
  0
LINE
  5
5A
330
2
100
AcDbEntity
  8
ANCON-BOLT
100
AcDbLine
 10
2917.27755657341
 20
3100.575338956254
 30
0.0
 11
2919.648112398938
 21
3102.441303604157
 31
0.0
  0
LINE
  5
5B
330
2
100
AcDbEntity
  8
ANCON-BOLT
100
AcDbLine
 10
2919.648112398938
 20
3102.441303604156
 30
0.0
 11
2917.27755657341
 21
3103.730633142558
 31
0.0
  0
LINE
  5
5C
330
2
100
AcDbEntity
  8
ANCON-BOLT
100
AcDbLine
 10
2917.27755657341
 20
3097.42004476995
 30
0.0
 11
2919.648112398938
 21
3099.286009417852
 31
0.0
  0
LINE
  5
5D
330
2
100
AcDbEntity
  8
ANCON-BOLT
100
AcDbLine
 10
2919.648112398938
 20
3096.130715231548
 30
0.0
 11
2917.27755657341
 21
3097.42004476995
 31
0.0
  0
LINE
  5
5E
330
2
100
AcDbEntity
  8
ANCON-BOLT
100
AcDbLine
 10
2917.27755657341
 20
3091.10945639734
 30
0.0
 11
2919.648112398938
 21
3092.975421045243
 31
0.0
  0
LINE
  5
5F
330
2
100
AcDbEntity
  8
ANCON-BOLT
100
AcDbLine
 10
2919.648112398938
 20
3092.975421045243
 30
0.0
 11
2917.27755657341
 21
3094.264750583645
 31
0.0
  0
LINE
  5
60
330
2
100
AcDbEntity
  8
ANCON-BOLT
100
AcDbLine
 10
2917.27755657341
 20
3094.264750583645
 30
0.0
 11
2919.648112398938
 21
3096.130715231548
 31
0.0
  0
ARC
  5
61
330
2
100
AcDbEntity
  8
ANCON-BOLT
100
AcDbCircle
 10
2896.441929828833
 20
3100.266030836504
 30
0.0
 40
0.7
100
AcDbArc
 50
300.5808710536632
 51
59.41912894633674
  0
ARC
  5
62
330
2
100
AcDbEntity
  8
ANCON-BOLT
100
AcDbCircle
 10
2896.441929828833
 20
3100.266030836504
 30
0.0
 40
0.7
100
AcDbArc
 50
300.5808710536632
 51
59.41912894633674
  0
ARC
  5
63
330
2
100
AcDbEntity
  8
ANCON-BOLT
100
AcDbCircle
 10
2896.441929828833
 20
3081.405080073833
 30
0.0
 40
0.7
100
AcDbArc
 50
300.5808710536632
 51
59.41912894633674
  0
LINE
  5
64
330
2
100
AcDbEntity
  8
ANCON-BOLT
100
AcDbLine
 10
2917.27755657341
 20
3113.196515701472
 30
0.0
 11
2919.648112398938
 21
3115.062480349374
 31
0.0
  0
LINE
  5
65
330
2
100
AcDbEntity
  8
ANCON-BOLT
100
AcDbLine
 10
2919.648112398938
 20
3115.062480349374
 30
0.0
 11
2918.28474279655
 21
3115.804008003433
 31
0.0
  0
LINE
  5
66
330
2
100
AcDbEntity
  8
ANCON-BOLT
100
AcDbLine
 10
2919.648112398938
 20
3105.596597790461
 30
0.0
 11
2917.27755657341
 21
3106.885927328863
 31
0.0
  0
LINE
  5
67
330
2
100
AcDbEntity
  8
ANCON-BOLT
100
AcDbLine
 10
2917.27755657341
 20
3106.885927328863
 30
0.0
 11
2919.648112398938
 21
3108.751891976766
 31
0.0
  0
LINE
  5
68
330
2
100
AcDbEntity
  8
ANCON-BOLT
100
AcDbLine
 10
2919.648112398938
 20
3108.751891976766
 30
0.0
 11
2917.27755657341
 21
3110.041221515167
 31
0.0
  0
LINE
  5
69
330
2
100
AcDbEntity
  8
ANCON-BOLT
100
AcDbLine
 10
2917.27755657341
 20
3110.041221515167
 30
0.0
 11
2919.648112398938
 21
3111.90718616307
 31
0.0
  0
LINE
  5
6A
330
2
100
AcDbEntity
  8
ANCON-BOLT
100
AcDbLine
 10
2919.648112398938
 20
3111.90718616307
 30
0.0
 11
2917.27755657341
 21
3113.196515701472
 31
0.0
  0
LINE
  5
6B
330
2
100
AcDbEntity
  8
ANCON-BOLT
100
AcDbLine
 10
2917.27755657341
 20
3103.730633142558
 30
0.0
 11
2919.648112398938
 21
3105.596597790461
 31
0.0
  0
ARC
  5
6C
330
2
100
AcDbEntity
  8
ANCON-BOLT
100
AcDbCircle
 10
2893.580574834358
 20
3094.218778319941
 30
0.0
 40
6.324240589131578
100
AcDbArc
 50
59.41912894633674
 51
120.5808710536632
  0
ARC
  5
6D
330
2
100
AcDbEntity
  8
ANCON-BOLT
100
AcDbCircle
 10
2893.580574834358
 20
3095.424055020783
 30
0.0
 40
6.324240589131397
100
AcDbArc
 50
59.41912894633674
 51
121.8163300147321
  0
ARC
  5
6E
330
2
100
AcDbEntity
  8
ANCON-BOLT
100
AcDbCircle
 10
2893.580574834358
 20
3105.108006652225
 30
0.0
 40
6.324240589131397
100
AcDbArc
 50
238.1836699852678
 51
300.5808710536632
  0
ARC
  5
6F
330
2
100
AcDbEntity
  8
ANCON-BOLT
100
AcDbCircle
 10
2893.580574834358
 20
3086.247055889555
 30
0.0
 40
6.324240589131578
100
AcDbArc
 50
238.1836699852678
 51
300.5808710536632
  0
ARC
  5
70
330
2
100
AcDbEntity
  8
ANCON-BOLT
100
AcDbCircle
 10
2893.580574834358
 20
3087.452332590396
 30
0.0
 40
6.324240589131578
100
AcDbArc
 50
239.4191289463367
 51
300.5808710536632
  0
ARC
  5
71
330
2
100
AcDbEntity
  8
ANCON-BOLT
100
AcDbCircle
 10
2893.580574834358
 20
3076.563104258112
 30
0.0
 40
6.324240589131578
100
AcDbArc
 50
59.41912894633674
 51
121.8163300147321
  0
LINE
  5
72
330
2
100
AcDbEntity
  8
ANCON-BOLT
100
AcDbLine
 10
2925.27755657341
 20
3065.867102906905
 30
0.0
 11
2925.27755657341
 21
3115.804008003433
 31
0.0
  0
ARC
  5
73
330
2
100
AcDbEntity
  8
ANCON-BOLT
100
AcDbCircle
 10
2914.616043362387
 20
3091.336913548798
 30
0.0
 40
19.06810545995651
100
AcDbArc
 50
340.836992651855
 51
358.493347245754
  0
LINE
  5
74
330
2
100
AcDbEntity
  8
ANCON-BOLT
100
AcDbLine
 10
2933.67755657341
 20
3096.593433551458
 30
0.0
 11
2933.67755657341
 21
3085.07767735888
 31
0.0
  0
LINE
  5
75
330
2
100
AcDbEntity
  8
ANCON-BOLT
100
AcDbLine
 10
2925.27755657341
 20
3102.351311647747
 30
0.0
 11
2925.27755657341
 21
3079.31979926259
 31
0.0
  0
LINE
  5
76
330
2
100
AcDbEntity
  8
ANCON-BOLT
100
AcDbLine
 10
2932.62755657341
 20
3102.351311647747
 30
0.0
 11
2925.27755657341
 21
3102.351311647747
 31
0.0
  0
LINE
  5
77
330
2
100
AcDbEntity
  8
ANCON-BOLT
100
AcDbLine
 10
2932.62755657341
 20
3096.593433551458
 30
0.0
 11
2925.27755657341
 21
3096.593433551458
 31
0.0
  0
POINT
  5
78
330
2
100
AcDbEntity
  8
ANCON-BOLT
100
AcDbPoint
 10
2925.27755657341
 20
3090.835555455169
 30
0.0
  0
LINE
  5
79
330
2
100
AcDbEntity
  8
ANCON-BOLT
100
AcDbLine
 10
2933.67755657341
 20
3096.593433551458
 30
0.0
 11
2933.67755657341
 21
3099.472372599603
 31
0.0
  0
ARC
  5
7A
330
2
100
AcDbEntity
  8
ANCON-BOLT
100
AcDbCircle
 10
2929.192455918257
 20
3099.472372599603
 30
0.0
 40
4.481986898013125
100
AcDbArc
 50
320.033810992878
 51
39.96618900712194
  0
ARC
  5
7B
330
2
100
AcDbEntity
  8
ANCON-BOLT
100
AcDbCircle
 10
2914.616043362387
 20
3090.334197361539
 30
0.0
 40
19.06810545995651
100
AcDbArc
 50
1.506652754245961
 51
19.16300734814496
  0
LINE
  5
7C
330
2
100
AcDbEntity
  8
ANCON-BOLT
100
AcDbLine
 10
2932.62755657341
 20
3079.31979926259
 30
0.0
 11
2925.27755657341
 21
3079.31979926259
 31
0.0
  0
LINE
  5
7D
330
2
100
AcDbEntity
  8
ANCON-BOLT
100
AcDbLine
 10
2932.62755657341
 20
3085.07767735888
 30
0.0
 11
2925.27755657341
 21
3085.07767735888
 31
0.0
  0
LINE
  5
7E
330
2
100
AcDbEntity
  8
ANCON-BOLT
100
AcDbLine
 10
2933.67755657341
 20
3085.07767735888
 30
0.0
 11
2933.67755657341
 21
3082.198738310735
 31
0.0
  0
ARC
  5
7F
330
2
100
AcDbEntity
  8
ANCON-BOLT
100
AcDbCircle
 10
2929.192455918257
 20
3082.198738310735
 30
0.0
 40
4.481986898013125
100
AcDbArc
 50
320.033810992878
 51
39.96618900712194
  0
ENDSEC
  0
SECTION
  2
OBJECTS
  0
DICTIONARY
  5
7
330
0
100
AcDbDictionary
281
     1
  3
ACAD_GROUP
350
24
  3
ACAD_LAYOUT
350
B
  3
ACAD_MLINESTYLE
350
25
  3
ACAD_PLOTSETTINGS
350
26
  3
ACAD_PLOTSTYLENAME
350
6
  0
DICTIONARY
  5
24
102
{ACAD_REACTORS
330
7
102
}
330
7
100
AcDbDictionary
281
     1
  0
DICTIONARY
  5
B
102
{ACAD_REACTORS
330
7
102
}
330
7
100
AcDbDictionary
281
     1
  3
Layout1
350
F
  3
Model
350
A
  0
DICTIONARY
  5
25
102
{ACAD_REACTORS
330
7
102
}
330
7
100
AcDbDictionary
281
     1
  3
Standard
350
29
  0
DICTIONARY
  5
26
102
{ACAD_REACTORS
330
7
102
}
330
7
100
AcDbDictionary
281
     1
  0
ACDBDICTIONARYWDFLT
  5
6
102
{ACAD_REACTORS
330
7
102
}
330
7
100
AcDbDictionary
281
     1
  3
Normal
350
5
100
AcDbDictionaryWithDefault
340
5
  0
LAYOUT
  5
F
102
{ACAD_REACTORS
330
B
102
}
330
B
100
AcDbPlotSettings
  1

  2
A4.pc3
  4
A4
  6

 40
6.720416545867919
 41
6.720423221588134
 42
7.694076538085937
 43
4.011077880859375
 44
209.9733276367187
 45
296.9683227539062
 46
2.839999999999999
 47
1.58
 48
0.0
 49
0.0
140
0.0
141
0.0
142
1.0
143
1.0
 70
   692
 72
     1
 73
     0
 74
     1
  7
Std pen settings.ctb
 75
    16
147
1.0
148
-7.775434128976201
149
-0.5703992853406135
100
AcDbLayout
  1
Layout1
 70
     0
 71
     1
 10
-1.784982416891718
 20
-7.730023936247521
 11
208.188345219827
 21
289.2382988176587
 12
0.0
 22
0.0
 32
0.0
 14
7.777105839157954
 24
0.5792682657111623
 34
0.0
 15
197.6550712950588
 25
283.6213344614824
 35
0.0
146
0.0
 13
0.0
 23
0.0
 33
0.0
 16
1.0
 26
0.0
 36
0.0
 17
0.0
 27
1.0
 37
0.0
 76
     0
330
C
  0
LAYOUT
  5
A
102
{ACAD_REACTORS
330
B
102
}
330
B
100
AcDbPlotSettings
  1

  2
Xerox 2 plain A3
  4

  6

 40
0.0
 41
0.0
 42
0.0
 43
0.0
 44
0.0
 45
0.0
 46
0.0
 47
0.0
 48
0.0
 49
0.0
140
0.0
141
0.0
142
1.0
143
1.0
 70
  1712
 72
     0
 73
     0
 74
     0
  7
Std pen settings.ctb
 75
     0
147
1.0
148
0.0
149
0.0
100
AcDbLayout
  1
Model
 70
     1
 71
     0
 10
0.0
 20
0.0
 11
12.0
 21
9.0
 12
0.0
 22
0.0
 32
0.0
 14
0.0
 24
0.0
 34
0.0
 15
0.0
 25
0.0
 35
0.0
146
0.0
 13
0.0
 23
0.0
 33
0.0
 16
1.0
 26
0.0
 36
0.0
 17
0.0
 27
1.0
 37
0.0
 76
     0
330
2
  0
MLINESTYLE
  5
29
102
{ACAD_REACTORS
330
25
102
}
330
25
100
AcDbMlineStyle
  2
STANDARD
 70
     0
  3

 62
   256
 51
90.0
 52
90.0
 71
     2
 49
0.5
 62
   256
  6
BYLAYER
 49
-0.5
 62
   256
  6
BYLAYER
  0
ACDBPLACEHOLDER
  5
5
102
{ACAD_REACTORS
330
6
102
}
330
6
  0
ENDSEC
  0
EOF
