  0
SECTION
  2
HEADER
  9
$ACADVER
  1
AC1015
  9
$ACADMAINTVER
 70
    10
  9
$DWGCODEPAGE
  3
ANSI_1252
  9
$INSBASE
 10
0.0
 20
0.0
 30
0.0
  9
$EXTMIN
 10
3065.137661562335
 20
2816.192394479914
 30
0.0
  9
$EXTMAX
 10
3354.1282169345
 20
2893.498454822744
 30
0.0
  9
$LIMMIN
 10
0.0
 20
0.0
  9
$LIMMAX
 10
12.0
 20
9.0
  9
$ORTHOMODE
 70
     1
  9
$REGENMODE
 70
     1
  9
$FILLMODE
 70
     1
  9
$QTEXTMODE
 70
     0
  9
$MIRRTEXT
 70
     1
  9
$LTSCALE
 40
1.0
  9
$ATTMODE
 70
     1
  9
$TEXTSIZE
 40
9.0
  9
$TRACEWID
 40
0.05
  9
$TEXTSTYLE
  7
Standard
  9
$CLAYER
  8
GRID
  9
$CELTYPE
  6
ByLayer
  9
$CECOLOR
 62
   256
  9
$CELTSCALE
 40
1.0
  9
$DISPSILH
 70
     0
  9
$DIMSCALE
 40
10.0
  9
$DIMASZ
 40
2.0
  9
$DIMEXO
 40
4.5
  9
$DIMDLI
 40
0.0
  9
$DIMRND
 40
1.0
  9
$DIMDLE
 40
1.25
  9
$DIMEXE
 40
1.5
  9
$DIMTP
 40
0.0
  9
$DIMTM
 40
0.0
  9
$DIMTXT
 40
1.8
  9
$DIMCEN
 40
0.0
  9
$DIMTSZ
 40
0.0
  9
$DIMTOL
 70
     0
  9
$DIMLIM
 70
     0
  9
$DIMTIH
 70
     0
  9
$DIMTOH
 70
     0
  9
$DIMSE1
 70
     0
  9
$DIMSE2
 70
     0
  9
$DIMTAD
 70
     1
  9
$DIMZIN
 70
    12
  9
$DIMBLK
  1

  9
$DIMASO
 70
     1
  9
$DIMSHO
 70
     1
  9
$DIMPOST
  1

  9
$DIMAPOST
  1

  9
$DIMALT
 70
     0
  9
$DIMALTD
 70
     2
  9
$DIMALTF
 40
0.04
  9
$DIMLFAC
 40
1.0
  9
$DIMTOFL
 70
     0
  9
$DIMTVP
 40
0.0
  9
$DIMTIX
 70
     0
  9
$DIMSOXD
 70
     0
  9
$DIMSAH
 70
     0
  9
$DIMBLK1
  1

  9
$DIMBLK2
  1

  9
$DIMSTYLE
  2
1-10
  9
$DIMCLRD
 70
     0
  9
$DIMCLRE
 70
     0
  9
$DIMCLRT
 70
     0
  9
$DIMTFAC
 40
1.25
  9
$DIMGAP
 40
1.0
  9
$DIMJUST
 70
     0
  9
$DIMSD1
 70
     0
  9
$DIMSD2
 70
     0
  9
$DIMTOLJ
 70
     1
  9
$DIMTZIN
 70
    12
  9
$DIMALTZ
 70
    12
  9
$DIMALTTZ
 70
    12
  9
$DIMUPT
 70
     0
  9
$DIMDEC
 70
     2
  9
$DIMTDEC
 70
     2
  9
$DIMALTU
 70
     2
  9
$DIMALTTD
 70
     2
  9
$DIMTXSTY
  7
ROMANS
  9
$DIMAUNIT
 70
     0
  9
$DIMADEC
 70
     0
  9
$DIMALTRND
 40
0.0
  9
$DIMAZIN
 70
     0
  9
$DIMDSEP
 70
    46
  9
$DIMATFIT
 70
     3
  9
$DIMFRAC
 70
     0
  9
$DIMLDRBLK
  1

  9
$DIMLUNIT
 70
     2
  9
$DIMLWD
 70
    -2
  9
$DIMLWE
 70
    -2
  9
$DIMTMOVE
 70
     2
  9
$LUNITS
 70
     2
  9
$LUPREC
 70
     4
  9
$SKETCHINC
 40
0.1
  9
$FILLETRAD
 40
15.5
  9
$AUNITS
 70
     0
  9
$AUPREC
 70
     0
  9
$MENU
  1
.
  9
$ELEVATION
 40
0.0
  9
$PELEVATION
 40
0.0
  9
$THICKNESS
 40
0.0
  9
$LIMCHECK
 70
     0
  9
$CHAMFERA
 40
0.0
  9
$CHAMFERB
 40
0.0
  9
$CHAMFERC
 40
1.0
  9
$CHAMFERD
 40
0.0
  9
$SKPOLY
 70
     0
  9
$TDCREATE
 40
2452515.394593356
  9
$TDUCREATE
 40
2452515.394593356
  9
$TDUPDATE
 40
2453060.744032222
  9
$TDUUPDATE
 40
2453060.744032222
  9
$TDINDWG
 40
0.2480440509
  9
$TDUSRTIMER
 40
0.2480427894
  9
$USRTIMER
 70
     1
  9
$ANGBASE
 50
0.0
  9
$ANGDIR
 70
     0
  9
$PDMODE
 70
     0
  9
$PDSIZE
 40
0.0
  9
$PLINEWID
 40
0.0
  9
$SPLFRAME
 70
     0
  9
$SPLINETYPE
 70
     6
  9
$SPLINESEGS
 70
     8
  9
$HANDSEED
  5
2540
  9
$SURFTAB1
 70
     6
  9
$SURFTAB2
 70
     6
  9
$SURFTYPE
 70
     6
  9
$SURFU
 70
     6
  9
$SURFV
 70
     6
  9
$UCSBASE
  2

  9
$UCSNAME
  2

  9
$UCSORG
 10
0.0
 20
0.0
 30
0.0
  9
$UCSXDIR
 10
1.0
 20
0.0
 30
0.0
  9
$UCSYDIR
 10
0.0
 20
1.0
 30
0.0
  9
$UCSORTHOREF
  2

  9
$UCSORTHOVIEW
 70
     0
  9
$UCSORGTOP
 10
0.0
 20
0.0
 30
0.0
  9
$UCSORGBOTTOM
 10
0.0
 20
0.0
 30
0.0
  9
$UCSORGLEFT
 10
0.0
 20
0.0
 30
0.0
  9
$UCSORGRIGHT
 10
0.0
 20
0.0
 30
0.0
  9
$UCSORGFRONT
 10
0.0
 20
0.0
 30
0.0
  9
$UCSORGBACK
 10
0.0
 20
0.0
 30
0.0
  9
$PUCSBASE
  2

  9
$PUCSNAME
  2

  9
$PUCSORG
 10
0.0
 20
0.0
 30
0.0
  9
$PUCSXDIR
 10
1.0
 20
0.0
 30
0.0
  9
$PUCSYDIR
 10
0.0
 20
1.0
 30
0.0
  9
$PUCSORTHOREF
  2

  9
$PUCSORTHOVIEW
 70
     0
  9
$PUCSORGTOP
 10
0.0
 20
0.0
 30
0.0
  9
$PUCSORGBOTTOM
 10
0.0
 20
0.0
 30
0.0
  9
$PUCSORGLEFT
 10
0.0
 20
0.0
 30
0.0
  9
$PUCSORGRIGHT
 10
0.0
 20
0.0
 30
0.0
  9
$PUCSORGFRONT
 10
0.0
 20
0.0
 30
0.0
  9
$PUCSORGBACK
 10
0.0
 20
0.0
 30
0.0
  9
$USERI1
 70
     0
  9
$USERI2
 70
     0
  9
$USERI3
 70
     0
  9
$USERI4
 70
     0
  9
$USERI5
 70
     0
  9
$USERR1
 40
0.0
  9
$USERR2
 40
0.0
  9
$USERR3
 40
0.0
  9
$USERR4
 40
0.0
  9
$USERR5
 40
0.0
  9
$WORLDVIEW
 70
     1
  9
$SHADEDGE
 70
     3
  9
$SHADEDIF
 70
    70
  9
$TILEMODE
 70
     1
  9
$MAXACTVP
 70
    64
  9
$PINSBASE
 10
0.0
 20
0.0
 30
0.0
  9
$PLIMCHECK
 70
     0
  9
$PEXTMIN
 10
7.777105839157954
 20
0.5792682657111623
 30
0.0
  9
$PEXTMAX
 10
197.6550712950588
 20
283.6213344614823
 30
0.0
  9
$PLIMMIN
 10
-1.784982416891717
 20
-7.730023936247521
  9
$PLIMMAX
 10
208.1883452198269
 20
289.2382988176586
  9
$UNITMODE
 70
     0
  9
$VISRETAIN
 70
     1
  9
$PLINEGEN
 70
     0
  9
$PSLTSCALE
 70
     0
  9
$TREEDEPTH
 70
  3020
  9
$CMLSTYLE
  2
Standard
  9
$CMLJUST
 70
     0
  9
$CMLSCALE
 40
1.0
  9
$PROXYGRAPHICS
 70
     1
  9
$MEASUREMENT
 70
     1
  9
$CELWEIGHT
370
    -1
  9
$ENDCAPS
280
     0
  9
$JOINSTYLE
280
     0
  9
$LWDISPLAY
290
     0
  9
$INSUNITS
 70
     1
  9
$HYPERLINKBASE
  1

  9
$STYLESHEET
  1

  9
$XEDIT
290
     1
  9
$CEPSNTYPE
380
     0
  9
$PSTYLEMODE
290
     1
  9
$FINGERPRINTGUID
  2
{0F8F7604-0E20-11D5-8D50-00105A3DEFE9}
  9
$VERSIONGUID
  2
{2016BF32-4C64-44CA-9F6A-31D418DF4CF5}
  9
$EXTNAMES
290
     1
  9
$PSVPSCALE
 40
0.0
  9
$OLESTARTUP
290
     0
  0
ENDSEC
  0
SECTION
  2
CLASSES
  0
CLASS
  1
ACDBDICTIONARYWDFLT
  2
AcDbDictionaryWithDefault
  3
AutoCAD 2000
 90
        0
280
     0
281
     0
  0
CLASS
  1
ACDBPLACEHOLDER
  2
AcDbPlaceHolder
  3
AutoCAD 2000
 90
        0
280
     0
281
     0
  0
CLASS
  1
LAYOUT
  2
AcDbLayout
  3
AutoCAD 2000
 90
        0
280
     0
281
     0
  0
CLASS
  1
DICTIONARYVAR
  2
AcDbDictionaryVar
  3
AutoCAD 2000
 90
        0
280
     0
281
     0
  0
CLASS
  1
PLOTSETTINGS
  2
AcDbPlotSettings
  3
AutoCAD 2000
 90
    32768
280
     0
281
     0
  0
ENDSEC
  0
SECTION
  2
TABLES
  0
TABLE
  2
VPORT
  5
8
330
0
100
AcDbSymbolTable
 70
     2
  0
VPORT
  5
251E
330
8
100
AcDbSymbolTableRecord
100
AcDbViewportTableRecord
  2
*Active
 70
     0
 10
0.0
 20
0.0
 11
1.0
 21
1.0
 12
3242.046248367575
 22
2854.795898422389
 13
0.0
 23
0.0
 14
0.5
 24
0.5
 15
0.5
 25
0.5
 16
0.0
 26
0.0
 36
1.0
 17
0.0
 27
0.0
 37
0.0
 40
233.5585690317466
 41
1.52338811630847
 42
50.0
 43
0.0
 44
0.0
 50
0.0
 51
0.0
 71
     0
 72
   100
 73
     1
 74
     3
 75
     0
 76
     0
 77
     0
 78
     0
281
     0
 65
     1
110
0.0
120
0.0
130
0.0
111
1.0
121
0.0
131
0.0
112
0.0
122
1.0
132
0.0
 79
     0
146
0.0
  0
ENDTAB
  0
TABLE
  2
LTYPE
  5
5
330
0
100
AcDbSymbolTable
 70
    27
  0
LTYPE
  5
14
330
5
100
AcDbSymbolTableRecord
100
AcDbLinetypeTableRecord
  2
ByBlock
 70
     0
  3

 72
    65
 73
     0
 40
0.0
  0
LTYPE
  5
15
330
5
100
AcDbSymbolTableRecord
100
AcDbLinetypeTableRecord
  2
ByLayer
 70
     0
  3

 72
    65
 73
     0
 40
0.0
  0
LTYPE
  5
16
330
5
100
AcDbSymbolTableRecord
100
AcDbLinetypeTableRecord
  2
Continuous
 70
     0
  3
Solid line
 72
    65
 73
     0
 40
0.0
  0
LTYPE
  5
336
330
5
100
AcDbSymbolTableRecord
100
AcDbLinetypeTableRecord
  2
GRID1_50
 70
     0
  3
________________  __  ________________  __
 72
    65
 73
     4
 40
1800.0
 49
1500.0
 74
     0
 49
-100.0
 74
     0
 49
100.0
 74
     0
 49
-100.0
 74
     0
  0
ENDTAB
  0
TABLE
  2
LAYER
  5
2
330
0
100
AcDbSymbolTable
 70
    29
  0
LAYER
  5
10
330
2
100
AcDbSymbolTableRecord
100
AcDbLayerTableRecord
  2
0
 70
     0
 62
     7
  6
Continuous
370
    -3
390
F
  0
LAYER
  5
146
330
2
100
AcDbSymbolTableRecord
100
AcDbLayerTableRecord
  2
A4 SHEET
 70
     0
 62
     3
  6
Continuous
370
    -3
390
F
  0
LAYER
  5
147
330
2
100
AcDbSymbolTableRecord
100
AcDbLayerTableRecord
  2
DANCON
 70
     0
 62
     4
  6
Continuous
370
    -3
390
F
  0
LAYER
  5
309
330
2
100
AcDbSymbolTableRecord
100
AcDbLayerTableRecord
  2
Defpoints
 70
     0
 62
     7
  6
Continuous
290
     0
370
    -3
390
F
  0
LAYER
  5
339
330
2
100
AcDbSymbolTableRecord
100
AcDbLayerTableRecord
  2
DDIMS
 70
     0
 62
     2
  6
Continuous
370
    -3
390
F
  0
LAYER
  5
33F
330
2
100
AcDbSymbolTableRecord
100
AcDbLayerTableRecord
  2
GRID
 70
     0
 62
     1
  6
GRID1_50
370
    -3
390
F
  0
LAYER
  5
17B7
330
2
100
AcDbSymbolTableRecord
100
AcDbLayerTableRecord
  2
ANCON-BOLT
 70
     0
 62
     1
  6
Continuous
370
    -3
390
F
  0
LAYER
  5
1818
330
2
100
AcDbSymbolTableRecord
100
AcDbLayerTableRecord
  2
ANCON-TEXT
 70
     0
 62
     6
  6
Continuous
370
    -3
390
F
  0
ENDTAB
  0
TABLE
  2
STYLE
  5
3
330
0
100
AcDbSymbolTable
 70
     2
  0
STYLE
  5
11
330
3
100
AcDbSymbolTableRecord
100
AcDbTextStyleTableRecord
  2
Standard
 70
     0
 40
9.0
 41
1.0
 50
0.0
 71
     0
 42
9.0
  3
romans.shx
  4

  0
STYLE
  5
148
330
3
100
AcDbSymbolTableRecord
100
AcDbTextStyleTableRecord
  2
ROMANS
 70
     0
 40
0.0
 41
1.0
 50
0.0
 71
     0
 42
18.0
  3
ROMANS.SHX
  4

  0
ENDTAB
  0
TABLE
  2
VIEW
  5
6
330
0
100
AcDbSymbolTable
 70
     0
  0
ENDTAB
  0
TABLE
  2
UCS
  5
7
330
0
100
AcDbSymbolTable
 70
     0
  0
ENDTAB
  0
TABLE
  2
APPID
  5
9
330
0
100
AcDbSymbolTable
 70
     1
  0
APPID
  5
12
330
9
100
AcDbSymbolTableRecord
100
AcDbRegAppTableRecord
  2
ACAD
 70
     0
  0
ENDTAB
  0
TABLE
  2
DIMSTYLE
  5
A
330
0
100
AcDbSymbolTable
 70
     9
100
AcDbDimStyleTable
 71
     1
340
149
  0
DIMSTYLE
105
27
330
A
100
AcDbSymbolTableRecord
100
AcDbDimStyleTableRecord
  2
Standard
 70
     0
340
11
  0
DIMSTYLE
105
149
330
A
100
AcDbSymbolTableRecord
100
AcDbDimStyleTableRecord
  2
1-10
 70
     0
 40
10.0
 41
2.0
 42
4.5
 43
0.0
 44
1.5
 45
1.0
 46
1.25
 73
     0
 74
     0
 77
     1
 78
    12
140
1.8
141
0.0
143
0.04
146
1.25
147
1.0
271
     2
272
     2
279
     2
284
    12
285
    12
286
    12
340
148
  0
ENDTAB
  0
TABLE
  2
BLOCK_RECORD
  5
1
330
0
100
AcDbSymbolTable
 70
    81
  0
BLOCK_RECORD
  5
1F
330
1
100
AcDbSymbolTableRecord
100
AcDbBlockTableRecord
  2
*Model_Space
340
22
  0
BLOCK_RECORD
  5
1B
330
1
100
AcDbSymbolTableRecord
100
AcDbBlockTableRecord
  2
*Paper_Space
340
1E
  0
BLOCK_RECORD
  5
2B
330
1
100
AcDbSymbolTableRecord
100
AcDbBlockTableRecord
  2
*X0
340
0
102
{BLKREFS
331
16E6
102
}
  0
BLOCK_RECORD
  5
B4
330
1
100
AcDbSymbolTableRecord
100
AcDbBlockTableRecord
  2
*X1
340
0
102
{BLKREFS
331
16EC
102
}
  0
BLOCK_RECORD
  5
11C
330
1
100
AcDbSymbolTableRecord
100
AcDbBlockTableRecord
  2
*X2
340
0
102
{BLKREFS
331
16E4
102
}
  0
BLOCK_RECORD
  5
241
330
1
100
AcDbSymbolTableRecord
100
AcDbBlockTableRecord
  2
A4 sheet
340
0
310
2800000020000000200000000100080000000000000400000000000000000000000000000000000000000000000080000080000000808000800000008000800080800000C0C0C000C0DCC000F0CAA6000020400000206000002080000020A0000020C0000020E00000400000004020000040400000406000004080000040A0
310
000040C0000040E00000600000006020000060400000606000006080000060A0000060C0000060E00000800000008020000080400000806000008080000080A0000080C0000080E00000A0000000A0200000A0400000A0600000A0800000A0A00000A0C00000A0E00000C0000000C0200000C0400000C0600000C0800000C0
310
A00000C0C00000C0E00000E0000000E0200000E0400000E0600000E0800000E0A00000E0C00000E0E00040000000400020004000400040006000400080004000A0004000C0004000E00040200000402020004020400040206000402080004020A0004020C0004020E000404000004040200040404000404060004040800040
310
40A0004040C0004040E00040600000406020004060400040606000406080004060A0004060C0004060E00040800000408020004080400040806000408080004080A0004080C0004080E00040A0000040A0200040A0400040A0600040A0800040A0A00040A0C00040A0E00040C0000040C0200040C0400040C0600040C08000
310
40C0A00040C0C00040C0E00040E0000040E0200040E0400040E0600040E0800040E0A00040E0C00040E0E00080000000800020008000400080006000800080008000A0008000C0008000E00080200000802020008020400080206000802080008020A0008020C0008020E00080400000804020008040400080406000804080
310
008040A0008040C0008040E00080600000806020008060400080606000806080008060A0008060C0008060E00080800000808020008080400080806000808080008080A0008080C0008080E00080A0000080A0200080A0400080A0600080A0800080A0A00080A0C00080A0E00080C0000080C0200080C0400080C0600080C0
310
800080C0A00080C0C00080C0E00080E0000080E0200080E0400080E0600080E0800080E0A00080E0C00080E0E000C0000000C0002000C0004000C0006000C0008000C000A000C000C000C000E000C0200000C0202000C0204000C0206000C0208000C020A000C020C000C020E000C0400000C0402000C0404000C0406000C0
310
408000C040A000C040C000C040E000C0600000C0602000C0604000C0606000C0608000C060A000C060C000C060E000C0800000C0802000C0804000C0806000C0808000C080A000C080C000C080E000C0A00000C0A02000C0A04000C0A06000C0A08000C0A0A000C0A0C000C0A0E000C0C00000C0C02000C0C04000C0C06000
310
C0C08000C0C0A000F0FBFF00A4A0A000808080000000FF0000FF000000FFFF00FF000000FF00FF00FFFF0000FFFFFF0000000000000000000000000000000000000000000000000000000000000000000000000000000000000000000000000000000000000000F9F9F9000000000000000000000000FAFAFAFAFAFCFAFAFA
310
FAFAFAFAFAFCFAFAF9F9F9000000000000000000000000F9F9FAFAFAFCFAFA000000000000FCF9F9F9F9FA000000000000000000000000F9F9FAFAFAFCFAFA000000000000FCF9F9F9F9FA000000000000000000000000F9F9FAFAFAFCF9F9FCFCFCFCFCFC070707070707000000000000000000000000F9F9FAF9F9F9F900
310
000000000000FC0707070707000000000000000000000000F9F9FAF9F9FCFAFAFAFAFAFAFAFAFCFAFAFAFAFA000000000000000000000000FA000000000000000000000000000000000000FA000000000000000000000000FA000000000000000000000000000000000000FA000000000000000000000000FA000000000000
310
000000000000000000000000FA000000000000000000000000FA000000000000000000000000000000000000FA000000000000000000000000FA000000000000000000000000000000000000FA000000000000000000000000FA000000000000000000000000000000000000FA000000000000000000000000FA0000000000
310
00000000000000000000000000FA000000000000000000000000FA000000000000000000000000000000000000FA000000000000000000000000FA000000000000000000000000000000000000FA000000000000000000000000FA000000000000000000000000000000000000FA000000000000000000000000FA00000000
310
0000000000000000000000000000FA000000000000000000000000FA000000000000000000000000000000000000FA000000000000000000000000FA000000000000000000000000000000000000FA000000000000000000000000FA000000000000000000000000000000000000FA000000000000000000000000FA000000
310
000000000000000000000000000000FA000000000000000000000000FA000000000000000000000000000000000000FA000000000000000000000000FA000000000000000000000000000000000000FA000000000000000000000000FA000000000000000000000000000000000000FA000000000000000000000000FA0000
310
00000000000000000000000000000000FA000000000000000000000000FA000000000000000000000000000000000000FA000000000000000000000000FA000000000000000000000000000000000000FA000000000000000000000000FA000000000000000000000000000000000000FA000000000000000000000000FAFA
310
FAFAFAFAFAFAFAFAFAFAFAFAFAFAFAFAFAFA0000000000000000000000000000000000000000000000000000000000000000000000000000
102
{BLKREFS
331
1733
102
}
1001
ACAD
1000
DesignCenter Data
1002
{
1070
     1
1070
     4
1002
}
  0
BLOCK_RECORD
  5
2C4
330
1
100
AcDbSymbolTableRecord
100
AcDbBlockTableRecord
  2
A4REV
340
0
102
{BLKREFS
331
15F9
102
}
  0
BLOCK_RECORD
  5
169A
330
1
100
AcDbSymbolTableRecord
100
AcDbBlockTableRecord
  2
A4
340
0
102
{BLKREFS
331
169D
102
}
1001
ACAD
1000
DesignCenter Data
1002
{
1070
     1
1070
     4
1002
}
  0
ENDTAB
  0
ENDSEC
  0
SECTION
  2
BLOCKS
  0
BLOCK
  5
20
330
1F
100
AcDbEntity
  8
0
100
AcDbBlockBegin
  2
*Model_Space
 70
     0
 10
0.0
 20
0.0
 30
0.0
  3
*Model_Space
  1

  0
ENDBLK
  5
21
330
1F
100
AcDbEntity
  8
0
100
AcDbBlockEnd
  0
BLOCK
  5
1C
330
1B
100
AcDbEntity
 67
     1
  8
0
100
AcDbBlockBegin
  2
*Paper_Space
 70
     0
 10
0.0
 20
0.0
 30
0.0
  3
*Paper_Space
  1

  0
ENDBLK
  5
1D
330
1B
100
AcDbEntity
 67
     1
  8
0
100
AcDbBlockEnd
  0
BLOCK
  5
B2
330
2B
100
AcDbEntity
  8
0
100
AcDbBlockBegin
  2
*X0
 70
     1
 10
0.0
 20
0.0
 30
0.0
  3
*X0
  1

  0
LINE
  5
2C
330
2B
100
AcDbEntity
  8
0
 62
     0
100
AcDbLine
 10
7547.219432715981
 20
38315.91035587681
 30
0.0
 11
7549.738071004629
 21
38318.42899416546
 31
0.0
  0
LINE
  5
2D
330
2B
100
AcDbEntity
  8
0
 62
     0
100
AcDbLine
 10
7547.173355329421
 20
38316.21783188083
 30
0.0
 11
7549.798565413277
 21
38318.8430419647
 31
0.0
  0
LINE
  5
2E
330
2B
100
AcDbEntity
  8
0
 62
     0
100
AcDbLine
 10
7547.136024763074
 20
38316.53405470508
 30
0.0
 11
7549.890522769034
 21
38319.28855271105
 31
0.0
  0
LINE
  5
2F
330
2B
100
AcDbEntity
  8
0
 62
     0
100
AcDbLine
 10
7547.108122062801
 20
38316.8597053954
 30
0.0
 11
7550.024248042608
 21
38319.77583137522
 31
0.0
  0
LINE
  5
30
330
2B
100
AcDbEntity
  8
0
 62
     0
100
AcDbLine
 10
7547.090454843284
 20
38317.19559156649
 30
0.0
 11
7550.21831465404
 21
38320.32345137723
 31
0.0
  0
LINE
  5
31
330
2B
100
AcDbEntity
  8
0
 62
     0
100
AcDbLine
 10
7554.38928408664
 20
38324.49442080984
 30
0.0
 11
7554.75146670083
 21
38324.85660342403
 31
0.0
  0
LINE
  5
32
330
2B
100
AcDbEntity
  8
0
 62
     0
100
AcDbLine
 10
7547.08399180954
 20
38317.54268192334
 30
0.0
 11
7550.513812938348
 21
38320.97250305213
 31
0.0
  0
LINE
  5
33
330
2B
100
AcDbEntity
  8
0
 62
     0
100
AcDbLine
 10
7553.74023241174
 20
38324.19892252553
 30
0.0
 11
7554.75146670083
 21
38325.21015681461
 31
0.0
  0
LINE
  5
34
330
2B
100
AcDbEntity
  8
0
 62
     0
100
AcDbLine
 10
7547.089910657139
 20
38317.90215416154
 30
0.0
 11
7551.059659211198
 21
38321.87190271559
 31
0.0
  0
LINE
  5
35
330
2B
100
AcDbEntity
  8
0
 62
     0
100
AcDbLine
 10
7552.840832748299
 20
38323.65307625268
 30
0.0
 11
7554.75146670083
 21
38325.56371020522
 31
0.0
  0
LINE
  5
36
330
2B
100
AcDbEntity
  8
0
 62
     0
100
AcDbLine
 10
7547.109666264565
 20
38318.27546315955
 30
0.0
 11
7554.75146670083
 21
38325.91726359581
 31
0.0
  0
LINE
  5
37
330
2B
100
AcDbEntity
  8
0
 62
     0
100
AcDbLine
 10
7547.145090882634
 20
38318.66444116821
 30
0.0
 11
7554.75146670083
 21
38326.27081698639
 31
0.0
  0
LINE
  5
38
330
2B
100
AcDbEntity
  8
0
 62
     0
100
AcDbLine
 10
7547.198546814266
 20
38319.07145049044
 30
0.0
 11
7554.75146670083
 21
38326.624370377
 31
0.0
  0
LINE
  5
39
330
2B
100
AcDbEntity
  8
0
 62
     0
100
AcDbLine
 10
7547.273169922693
 20
38319.49962698944
 30
0.0
 11
7554.75146670083
 21
38326.97792376759
 31
0.0
  0
LINE
  5
3A
330
2B
100
AcDbEntity
  8
0
 62
     0
100
AcDbLine
 10
7547.373280428434
 20
38319.95329088579
 30
0.0
 11
7554.75146670083
 21
38327.33147715818
 31
0.0
  0
LINE
  5
3B
330
2B
100
AcDbEntity
  8
0
 62
     0
100
AcDbLine
 10
7547.505128042819
 20
38320.43869189077
 30
0.0
 11
7554.274043573119
 21
38327.20760742107
 31
0.0
  0
LINE
  5
3C
330
2B
100
AcDbEntity
  8
0
 62
     0
100
AcDbLine
 10
7547.678381076075
 20
38320.96549831462
 30
0.0
 11
7553.747237149268
 21
38327.03435438781
 31
0.0
  0
LINE
  5
3D
330
2B
100
AcDbEntity
  8
0
 62
     0
100
AcDbLine
 10
7547.909541857345
 20
38321.55021248648
 30
0.0
 11
7553.162522977406
 21
38326.80319360653
 31
0.0
  0
LINE
  5
3E
330
2B
100
AcDbEntity
  8
0
 62
     0
100
AcDbLine
 10
7548.23166276121
 20
38322.22588678093
 30
0.0
 11
7552.486848682946
 21
38326.48107270268
 31
0.0
  0
LINE
  5
3F
330
2B
100
AcDbEntity
  8
0
 62
     0
100
AcDbLine
 10
7548.735982929388
 20
38323.0837603397
 30
0.0
 11
7551.628975124177
 21
38325.9767525345
 31
0.0
  0
LINE
  5
40
330
2B
100
AcDbEntity
  8
0
 62
     0
100
AcDbLine
 10
7547.273676977964
 20
38315.6110467482
 30
0.0
 11
7549.702607415643
 21
38318.03997718587
 31
0.0
  0
LINE
  5
41
330
2B
100
AcDbEntity
  8
0
 62
     0
100
AcDbLine
 10
7547.335590140914
 20
38315.31940652056
 30
0.0
 11
7549.687837233406
 21
38317.67165361305
 31
0.0
  0
LINE
  5
42
330
2B
100
AcDbEntity
  8
0
 62
     0
100
AcDbLine
 10
7547.404741544877
 20
38315.03500453393
 30
0.0
 11
7549.690671024915
 21
38317.32093401396
 31
0.0
  0
LINE
  5
43
330
2B
100
AcDbEntity
  8
0
 62
     0
100
AcDbLine
 10
7559.551466700829
 20
38327.18172968988
 30
0.0
 11
7559.677730929961
 21
38327.30799391901
 31
0.0
  0
LINE
  5
44
330
2B
100
AcDbEntity
  8
0
 62
     0
100
AcDbLine
 10
7547.48075648845
 20
38314.7574660869
 30
0.0
 11
7549.70881684177
 21
38316.98552644023
 31
0.0
  0
LINE
  5
45
330
2B
100
AcDbEntity
  8
0
 62
     0
100
AcDbLine
 10
7559.55146670083
 20
38326.82817629928
 30
0.0
 11
7559.955269376978
 21
38327.23197897544
 31
0.0
  0
LINE
  5
46
330
2B
100
AcDbEntity
  8
0
 62
     0
100
AcDbLine
 10
7547.563307273434
 20
38314.4864634813
 30
0.0
 11
7549.740520239727
 21
38316.66367644758
 31
0.0
  0
LINE
  5
47
330
2B
100
AcDbEntity
  8
0
 62
     0
100
AcDbLine
 10
7559.55146670083
 20
38326.47462290868
 30
0.0
 11
7560.226271982587
 21
38327.14942819045
 31
0.0
  0
LINE
  5
48
330
2B
100
AcDbEntity
  8
0
 62
     0
100
AcDbLine
 10
7547.652106092018
 20
38314.22170890928
 30
0.0
 11
7549.784404674241
 21
38316.35400749151
 31
0.0
  0
LINE
  5
49
330
2B
100
AcDbEntity
  8
0
 62
     0
100
AcDbLine
 10
7559.55146670083
 20
38326.12106951811
 30
0.0
 11
7560.491026554598
 21
38327.06062937186
 31
0.0
  0
LINE
  5
4A
330
2B
100
AcDbEntity
  8
0
 62
     0
100
AcDbLine
 10
7547.746899294246
 20
38313.96294872091
 30
0.0
 11
7549.83936855223
 21
38316.05541797891
 31
0.0
  0
LINE
  5
4B
330
2B
100
AcDbEntity
  8
0
 62
     0
100
AcDbLine
 10
7559.55146670083
 20
38325.76751612751
 30
0.0
 11
7560.749786742964
 21
38326.96583616964
 31
0.0
  0
LINE
  5
4C
330
2B
100
AcDbEntity
  8
0
 62
     0
100
AcDbLine
 10
7547.847462732629
 20
38313.70995876872
 30
0.0
 11
7549.904516136125
 21
38315.76701217221
 31
0.0
  0
LINE
  5
4D
330
2B
100
AcDbEntity
  8
0
 62
     0
100
AcDbLine
 10
7559.55146670083
 20
38325.41396273691
 30
0.0
 11
7561.002776695173
 21
38326.86527273125
 31
0.0
  0
LINE
  5
4E
330
2B
100
AcDbEntity
  8
0
 62
     0
100
AcDbLine
 10
7547.953597964995
 20
38313.46254061049
 30
0.0
 11
7549.979109636341
 21
38315.48805228182
 31
0.0
  0
LINE
  5
4F
330
2B
100
AcDbEntity
  8
0
 62
     0
100
AcDbLine
 10
7559.55146670083
 20
38325.06040934632
 30
0.0
 11
7561.250194853399
 21
38326.75913749888
 31
0.0
  0
LINE
  5
50
330
2B
100
AcDbEntity
  8
0
 62
     0
100
AcDbLine
 10
7548.065129103149
 20
38313.22051835805
 30
0.0
 11
7550.062535023172
 21
38315.21792427807
 31
0.0
  0
LINE
  5
51
330
2B
100
AcDbEntity
  8
0
 62
     0
100
AcDbLine
 10
7559.55146670083
 20
38324.70685595573
 30
0.0
 11
7561.492217105836
 21
38326.64760636074
 31
0.0
  0
LINE
  5
52
330
2B
100
AcDbEntity
  8
0
 62
     0
100
AcDbLine
 10
7548.181900220335
 20
38312.98373608463
 30
0.0
 11
7550.154277104557
 21
38314.95611296885
 31
0.0
  0
LINE
  5
53
330
2B
100
AcDbEntity
  8
0
 62
     0
100
AcDbLine
 10
7559.756622495022
 20
38324.55845835933
 30
0.0
 11
7561.728999379245
 21
38326.53083524355
 31
0.0
  0
LINE
  5
54
330
2B
100
AcDbEntity
  8
0
 62
     0
100
AcDbLine
 10
7548.303773173865
 20
38312.75205564758
 30
0.0
 11
7550.253900952009
 21
38314.70218342571
 31
0.0
  0
LINE
  5
55
330
2B
100
AcDbEntity
  8
0
 62
     0
100
AcDbLine
 10
7560.010552038168
 20
38324.45883451187
 30
0.0
 11
7561.960679816312
 21
38326.40896229002
 31
0.0
  0
LINE
  5
56
330
2B
100
AcDbEntity
  8
0
 62
     0
100
AcDbLine
 10
7548.430625794513
 20
38312.52535487763
 30
0.0
 11
7550.361037856617
 21
38314.45576693973
 31
0.0
  0
LINE
  5
57
330
2B
100
AcDbEntity
  8
0
 62
     0
100
AcDbLine
 10
7560.25696852415
 20
38324.35169760727
 30
0.0
 11
7562.187380586255
 21
38326.28210966937
 31
0.0
  0
LINE
  5
58
330
2B
100
AcDbEntity
  8
0
 62
     0
100
AcDbLine
 10
7548.56235035529
 20
38312.30352604781
 30
0.0
 11
7550.475374532179
 21
38314.21655022471
 31
0.0
  0
LINE
  5
59
330
2B
100
AcDbEntity
  8
0
 62
     0
100
AcDbLine
 10
7560.496185239184
 20
38324.2373609317
 30
0.0
 11
7562.40920941607
 21
38326.15038510859
 31
0.0
  0
LINE
  5
5A
330
2B
100
AcDbEntity
  8
0
 62
     0
100
AcDbLine
 10
7548.698852300235
 20
38312.08647460217
 30
0.0
 11
7550.596644752514
 21
38313.98426705444
 31
0.0
  0
LINE
  5
5B
330
2B
100
AcDbEntity
  8
0
 62
     0
100
AcDbLine
 10
7560.728468409441
 20
38324.11609071136
 30
0.0
 11
7562.626260861719
 21
38326.01388316365
 31
0.0
  0
LINE
  5
5C
330
2B
100
AcDbEntity
  8
0
 62
     0
100
AcDbLine
 10
7548.840049158278
 20
38311.87411806961
 30
0.0
 11
7550.724622775321
 21
38313.75869168665
 31
0.0
  0
LINE
  5
5D
330
2B
100
AcDbEntity
  8
0
 62
     0
100
AcDbLine
 10
7560.954043777228
 20
38323.98811268856
 30
0.0
 11
7562.838617394271
 21
38325.87268630561
 31
0.0
  0
LINE
  5
5E
330
2B
100
AcDbEntity
  8
0
 62
     0
100
AcDbLine
 10
7548.985869647672
 20
38311.66638516842
 30
0.0
 11
7550.859118178296
 21
38313.53963369903
 31
0.0
  0
LINE
  5
5F
330
2B
100
AcDbEntity
  8
0
 62
     0
100
AcDbLine
 10
7561.173101764847
 20
38323.8536172856
 30
0.0
 11
7563.046350295469
 21
38325.72686581621
 31
0.0
  0
LINE
  5
60
330
2B
100
AcDbEntity
  8
0
 62
     0
100
AcDbLine
 10
7549.136252917934
 20
38311.46321504808
 30
0.0
 11
7550.999971761855
 21
38313.326933892
 31
0.0
  0
LINE
  5
61
330
2B
100
AcDbEntity
  8
0
 62
     0
100
AcDbLine
 10
7561.385801571884
 20
38323.71276370204
 30
0.0
 11
7563.249520415801
 21
38325.57648254595
 31
0.0
  0
LINE
  5
62
330
2B
100
AcDbEntity
  8
0
 62
     0
100
AcDbLine
 10
7549.291147931191
 20
38311.26455667075
 30
0.0
 11
7551.147052324511
 21
38313.12046106407
 31
0.0
  0
LINE
  5
63
330
2B
100
AcDbEntity
  8
0
 62
     0
100
AcDbLine
 10
7561.592274399817
 20
38323.56568313938
 30
0.0
 11
7563.448178793135
 21
38325.42158753268
 31
0.0
  0
LINE
  5
64
330
2B
100
AcDbEntity
  8
0
 62
     0
100
AcDbLine
 10
7549.450512947221
 20
38311.07036829618
 30
0.0
 11
7551.300254119279
 21
38312.92010946823
 31
0.0
  0
LINE
  5
65
330
2B
100
AcDbEntity
  8
0
 62
     0
100
AcDbLine
 10
7561.792625995642
 20
38323.41248134461
 30
0.0
 11
7563.642367167701
 21
38325.26222251667
 31
0.0
  0
LINE
  5
66
330
2B
100
AcDbEntity
  8
0
 62
     0
100
AcDbLine
 10
7549.614315121096
 20
38310.88061707946
 30
0.0
 11
7551.45949489909
 21
38312.72579685746
 31
0.0
  0
LINE
  5
67
330
2B
100
AcDbEntity
  8
0
 62
     0
100
AcDbLine
 10
7561.986938606423
 20
38323.25324056478
 30
0.0
 11
7563.83211838442
 21
38325.09842034278
 31
0.0
  0
LINE
  5
68
330
2B
100
AcDbEntity
  8
0
 62
     0
100
AcDbLine
 10
7549.782530188679
 20
38310.69527875646
 30
0.0
 11
7551.624714441908
 21
38312.53746300968
 31
0.0
  0
LINE
  5
69
330
2B
100
AcDbEntity
  8
0
 62
     0
100
AcDbLine
 10
7562.175272454196
 20
38323.08802102197
 30
0.0
 11
7564.017456707427
 21
38324.93020527521
 31
0.0
  0
LINE
  5
6A
330
2B
100
AcDbEntity
  8
0
 62
     0
100
AcDbLine
 10
7549.955142232308
 20
38310.51433740948
 30
0.0
 11
7551.795873491506
 21
38312.35506866868
 31
0.0
  0
LINE
  5
6B
330
2B
100
AcDbEntity
  8
0
 62
     0
100
AcDbLine
 10
7562.357666795195
 20
38322.91686197238
 30
0.0
 11
7564.198398054394
 21
38324.75759323158
 31
0.0
  0
LINE
  5
6C
330
2B
100
AcDbEntity
  8
0
 62
     0
100
AcDbLine
 10
7550.132143538863
 20
38310.33778532545
 30
0.0
 11
7551.972953093407
 21
38312.17859488
 31
0.0
  0
LINE
  5
6D
330
2B
100
AcDbEntity
  8
0
 62
     0
100
AcDbLine
 10
7562.534140583887
 20
38322.73978237048
 30
0.0
 11
7564.374950138429
 21
38324.58059192502
 31
0.0
  0
LINE
  5
6E
330
2B
100
AcDbEntity
  8
0
 62
     0
100
AcDbLine
 10
7550.313534523938
 20
38310.16562291992
 30
0.0
 11
7552.155954267665
 21
38312.00804266366
 31
0.0
  0
LINE
  5
6F
330
2B
100
AcDbEntity
  8
0
 62
     0
100
AcDbLine
 10
7562.704692800224
 20
38322.55678119621
 30
0.0
 11
7564.547112543952
 21
38324.39920093995
 31
0.0
  0
LINE
  5
70
330
2B
100
AcDbEntity
  8
0
 62
     0
100
AcDbLine
 10
7550.499323737759
 20
38309.99785874316
 30
0.0
 11
7552.344898028927
 21
38311.84343303434
 31
0.0
  0
LINE
  5
71
330
2B
100
AcDbEntity
  8
0
 62
     0
100
AcDbLine
 10
7562.869302429554
 20
38322.36783743496
 30
0.0
 11
7564.714876720721
 21
38324.21341172613
 31
0.0
  0
LINE
  5
72
330
2B
100
AcDbEntity
  8
0
 62
     0
100
AcDbLine
 10
7550.689527939951
 20
38309.83450955476
 30
0.0
 11
7552.539825736836
 21
38311.68480735165
 31
0.0
  0
LINE
  5
73
330
2B
100
AcDbEntity
  8
0
 62
     0
100
AcDbLine
 10
7563.027928112238
 20
38322.17290972705
 30
0.0
 11
7564.878225909125
 21
38324.02320752393
 31
0.0
  0
LINE
  5
74
330
2B
100
AcDbEntity
  8
0
 62
     0
100
AcDbLine
 10
7550.884172265726
 20
38309.67560048995
 30
0.0
 11
7552.740799819282
 21
38311.5322280435
 31
0.0
  0
LINE
  5
75
330
2B
100
AcDbEntity
  8
0
 62
     0
100
AcDbLine
 10
7563.180507420385
 20
38321.9719356446
 30
0.0
 11
7565.037134973938
 21
38323.82856319815
 31
0.0
  0
LINE
  5
76
330
2B
100
AcDbEntity
  8
0
 62
     0
100
AcDbLine
 10
7551.083290451916
 20
38309.52116528553
 30
0.0
 11
7552.947904849934
 21
38311.38577968355
 31
0.0
  0
LINE
  5
77
330
2B
100
AcDbEntity
  8
0
 62
     0
100
AcDbLine
 10
7563.326955780327
 20
38321.76483061395
 30
0.0
 11
7565.191570178345
 21
38323.62944501197
 31
0.0
  0
LINE
  5
78
330
2B
100
AcDbEntity
  8
0
 62
     0
100
AcDbLine
 10
7551.286925170543
 20
38309.37124661357
 30
0.0
 11
7553.161249083053
 21
38311.24557052607
 31
0.0
  0
LINE
  5
79
330
2B
100
AcDbEntity
  8
0
 62
     0
100
AcDbLine
 10
7563.467164937802
 20
38321.55148638083
 30
0.0
 11
7565.341488850311
 21
38323.42581029334
 31
0.0
  0
LINE
  5
7A
330
2B
100
AcDbEntity
  8
0
 62
     0
100
AcDbLine
 10
7551.495128439071
 20
38309.2258964915
 30
0.0
 11
7553.380966459561
 21
38311.111734512
 31
0.0
  0
LINE
  5
7B
330
2B
100
AcDbEntity
  8
0
 62
     0
100
AcDbLine
 10
7563.601000951887
 20
38321.33176900431
 30
0.0
 11
7565.486838972377
 21
38323.21760702481
 31
0.0
  0
LINE
  5
7C
330
2B
100
AcDbEntity
  8
0
 62
     0
100
AcDbLine
 10
7551.707962145908
 20
38309.08517680775
 30
0.0
 11
7553.607219214942
 21
38310.98443387677
 31
0.0
  0
LINE
  5
7D
330
2B
100
AcDbEntity
  8
0
 62
     0
100
AcDbLine
 10
7563.728301587097
 20
38321.10551624893
 30
0.0
 11
7565.627558656132
 21
38323.00477331798
 31
0.0
  0
LINE
  5
7E
330
2B
100
AcDbEntity
  8
0
 62
     0
100
AcDbLine
 10
7551.925498678911
 20
38308.94915995016
 30
0.0
 11
7553.840201179766
 21
38310.86386245102
 31
0.0
  0
LINE
  5
7F
330
2B
100
AcDbEntity
  8
0
 62
     0
100
AcDbLine
 10
7563.848873012869
 20
38320.87253428412
 30
0.0
 11
7565.763575513725
 21
38322.78723678498
 31
0.0
  0
LINE
  5
80
330
2B
100
AcDbEntity
  8
0
 62
     0
100
AcDbLine
 10
7552.147821705237
 20
38308.8179295859
 30
0.0
 11
7554.080141986708
 21
38310.75024986737
 31
0.0
  0
LINE
  5
81
330
2B
100
AcDbEntity
  8
0
 62
     0
100
AcDbLine
 10
7563.962485596518
 20
38320.63259347718
 30
0.0
 11
7565.894805877988
 21
38322.56491375865
 31
0.0
  0
LINE
  5
82
330
2B
100
AcDbEntity
  8
0
 62
     0
100
AcDbLine
 10
7552.37502707658
 20
38308.69158156665
 30
0.0
 11
7554.327312351387
 21
38310.64386684145
 31
0.0
  0
LINE
  5
83
330
2B
100
AcDbEntity
  8
0
 62
     0
100
AcDbLine
 10
7564.068868622434
 20
38320.3854231125
 30
0.0
 11
7566.021153897238
 21
38322.3377083873
 31
0.0
  0
LINE
  5
84
330
2B
100
AcDbEntity
  8
0
 62
     0
100
AcDbLine
 10
7552.607223931885
 20
38308.57022503136
 30
0.0
 11
7554.582030808226
 21
38310.54503190768
 31
0.0
  0
LINE
  5
85
330
2B
100
AcDbEntity
  8
0
 62
     0
100
AcDbLine
 10
7564.167703556186
 20
38320.13070465566
 30
0.0
 11
7566.142510432529
 21
38322.105511532
 31
0.0
  0
LINE
  5
86
330
2B
100
AcDbEntity
  8
0
 62
     0
100
AcDbLine
 10
7552.844536005736
 20
38308.45398371461
 30
0.0
 11
7554.844672308899
 21
38310.45412001778
 31
0.0
  0
LINE
  5
87
330
2B
100
AcDbEntity
  8
0
 62
     0
100
AcDbLine
 10
7564.258615446107
 20
38319.86806315498
 30
0.0
 11
7566.258751749271
 21
38321.86819945815
 31
0.0
  0
LINE
  5
88
330
2B
100
AcDbEntity
  8
0
 62
     0
100
AcDbLine
 10
7553.087103168977
 20
38308.34299748726
 30
0.0
 11
7555.115679283453
 21
38310.37157360174
 31
0.0
  0
LINE
  5
89
330
2B
100
AcDbEntity
  8
0
 62
     0
100
AcDbLine
 10
7564.341161862147
 20
38319.59705618043
 30
0.0
 11
7566.369737976623
 21
38321.62563229491
 31
0.0
  0
LINE
  5
8A
330
2B
100
AcDbEntity
  8
0
 62
     0
100
AcDbLine
 10
7553.335083289008
 20
38308.23742421669
 30
0.0
 11
7555.395576104145
 21
38310.29791703183
 31
0.0
  0
LINE
  5
8B
330
2B
100
AcDbEntity
  8
0
 62
     0
100
AcDbLine
 10
7564.414818432047
 20
38319.31715935973
 30
0.0
 11
7566.475311247185
 21
38321.37765217488
 31
0.0
  0
LINE
  5
8C
330
2B
100
AcDbEntity
  8
0
 62
     0
100
AcDbLine
 10
7553.588654430176
 20
38308.13744196728
 30
0.0
 11
7555.684988188501
 21
38310.2337757256
 31
0.0
  0
LINE
  5
8D
330
2B
100
AcDbEntity
  8
0
 62
     0
100
AcDbLine
 10
7564.478959738285
 20
38319.02774727538
 30
0.0
 11
7566.575293496612
 21
38321.12408103371
 31
0.0
  0
LINE
  5
8E
330
2B
100
AcDbEntity
  8
0
 62
     0
100
AcDbLine
 10
7553.84801751806
 20
38308.04325166456
 30
0.0
 11
7555.984667746004
 21
38310.17990189251
 31
0.0
  0
LINE
  5
8F
330
2B
100
AcDbEntity
  8
0
 62
     0
100
AcDbLine
 10
7564.532833571376
 20
38318.72806771788
 30
0.0
 11
7566.66948379932
 21
38320.86471794582
 31
0.0
  0
LINE
  5
90
330
2B
100
AcDbEntity
  8
0
 62
     0
100
AcDbLine
 10
7554.113399526852
 20
38307.95508028276
 30
0.0
 11
7556.295529092301
 21
38310.13720984822
 31
0.0
  0
LINE
  5
91
330
2B
100
AcDbEntity
  8
0
 62
     0
100
AcDbLine
 10
7564.575525615673
 20
38318.41720637159
 30
0.0
 11
7566.757655181122
 21
38320.59933593703
 31
0.0
  0
LINE
  5
92
330
2B
100
AcDbEntity
  8
0
 62
     0
100
AcDbLine
 10
7554.3850573776
 20
38307.87318474292
 30
0.0
 11
7556.61869835341
 21
38310.10682571873
 31
0.0
  0
LINE
  5
93
330
2B
100
AcDbEntity
  8
0
 62
     0
100
AcDbLine
 10
7564.605909745155
 20
38318.09403711046
 30
0.0
 11
7566.839550720965
 21
38320.32767808629
 31
0.0
  0
LINE
  5
94
330
2B
100
AcDbEntity
  8
0
 62
     0
100
AcDbLine
 10
7554.663282676997
 20
38307.79785665173
 30
0.0
 11
7556.955585301918
 21
38310.09015927664
 31
0.0
  0
LINE
  5
95
330
2B
100
AcDbEntity
  8
0
 62
     0
100
AcDbLine
 10
7564.622576187241
 20
38317.75715016196
 30
0.0
 11
7566.914878812162
 21
38320.04945278688
 31
0.0
  0
LINE
  5
96
330
2B
100
AcDbEntity
  8
0
 62
     0
100
AcDbLine
 10
7554.94840758095
 20
38307.72942816508
 30
0.0
 11
7557.307990828201
 21
38310.08901141233
 31
0.0
  0
LINE
  5
97
330
2B
100
AcDbEntity
  8
0
 62
     0
100
AcDbLine
 10
7564.623724051552
 20
38317.40474463568
 30
0.0
 11
7566.983307298802
 21
38319.76432788292
 31
0.0
  0
LINE
  5
98
330
2B
100
AcDbEntity
  8
0
 62
     0
100
AcDbLine
 10
7555.240812071867
 20
38307.66827926541
 30
0.0
 11
7557.678274308156
 21
38310.1057415017
 31
0.0
  0
LINE
  5
99
330
2B
100
AcDbEntity
  8
0
 62
     0
100
AcDbLine
 10
7564.606993962192
 20
38317.03446115573
 30
0.0
 11
7567.04445619848
 21
38319.47192339201
 31
0.0
  0
LINE
  5
9A
330
2B
100
AcDbEntity
  8
0
 62
     0
100
AcDbLine
 10
7555.540933132421
 20
38307.61484693537
 30
0.0
 11
7558.069627783719
 21
38310.14354158666
 31
0.0
  0
LINE
  5
9B
330
2B
100
AcDbEntity
  8
0
 62
     0
100
AcDbLine
 10
7564.569193877223
 20
38316.64310768017
 30
0.0
 11
7567.097888528518
 21
38319.17180233146
 31
0.0
  0
LINE
  5
9C
330
2B
100
AcDbEntity
  8
0
 62
     0
100
AcDbLine
 10
7555.849276391207
 20
38307.56963680356
 30
0.0
 11
7558.48655454054
 21
38310.2069149529
 31
0.0
  0
LINE
  5
9D
330
2B
100
AcDbEntity
  8
0
 62
     0
100
AcDbLine
 10
7564.505820510993
 20
38316.22618092334
 30
0.0
 11
7567.14309866033
 21
38318.86345907268
 31
0.0
  0
LINE
  5
9E
330
2B
100
AcDbEntity
  8
0
 62
     0
100
AcDbLine
 10
7556.166431173038
 20
38307.5332381948
 30
0.0
 11
7558.935777425626
 21
38310.30258444739
 31
0.0
  0
LINE
  5
9F
330
2B
100
AcDbEntity
  8
0
 62
     0
100
AcDbLine
 10
7564.4101510165
 20
38315.77695803825
 30
0.0
 11
7567.179497269087
 21
38318.54630429085
 31
0.0
  0
LINE
  5
A0
330
2B
100
AcDbEntity
  8
0
 62
     0
100
AcDbLine
 10
7556.493090184438
 20
38307.5063438156
 30
0.0
 11
7559.428172745128
 21
38310.44142637629
 31
0.0
  0
LINE
  5
A1
330
2B
100
AcDbEntity
  8
0
 62
     0
100
AcDbLine
 10
7564.27130908759
 20
38315.28456271874
 30
0.0
 11
7567.206391648281
 21
38318.21964527944
 31
0.0
  0
LINE
  5
A2
330
2B
100
AcDbEntity
  8
0
 62
     0
100
AcDbLine
 10
7556.830075760625
 20
38307.4897760012
 30
0.0
 11
7559.983653628108
 21
38310.64335386868
 31
0.0
  0
LINE
  5
A3
330
2B
100
AcDbEntity
  8
0
 62
     0
100
AcDbLine
 10
7564.069381595202
 20
38314.72908183578
 30
0.0
 11
7567.222959462687
 21
38317.88265970326
 31
0.0
  0
LINE
  5
A4
330
2B
100
AcDbEntity
  8
0
 62
     0
100
AcDbLine
 10
7557.178375525669
 20
38307.48452237564
 30
0.0
 11
7560.647629142906
 21
38310.95377599288
 31
0.0
  0
LINE
  5
A5
330
2B
100
AcDbEntity
  8
0
 62
     0
100
AcDbLine
 10
7563.758959470999
 20
38314.06510632098
 30
0.0
 11
7567.228213088236
 21
38317.53435993821
 31
0.0
  0
LINE
  5
A6
330
2B
100
AcDbEntity
  8
0
 62
     0
100
AcDbLine
 10
7557.539191989786
 20
38307.49178544917
 30
0.0
 11
7561.602642576334
 21
38311.55523603571
 31
0.0
  0
LINE
  5
A7
330
2B
100
AcDbEntity
  8
0
 62
     0
100
AcDbLine
 10
7563.157499428166
 20
38313.11009288754
 30
0.0
 11
7567.220950014712
 21
38317.17354347408
 31
0.0
  0
LINE
  5
A8
330
2B
100
AcDbEntity
  8
0
 62
     0
100
AcDbLine
 10
7557.91401338506
 20
38307.51305345384
 30
0.0
 11
7567.199682010032
 21
38316.79872207883
 31
0.0
  0
LINE
  5
A9
330
2B
100
AcDbEntity
  8
0
 62
     0
100
AcDbLine
 10
7558.304718058831
 20
38307.55020473703
 30
0.0
 11
7567.162530726855
 21
38316.40801740504
 31
0.0
  0
LINE
  5
AA
330
2B
100
AcDbEntity
  8
0
 62
     0
100
AcDbLine
 10
7558.713734297059
 20
38307.60566758467
 30
0.0
 11
7567.107067879219
 21
38315.99900116682
 31
0.0
  0
LINE
  5
AB
330
2B
100
AcDbEntity
  8
0
 62
     0
100
AcDbLine
 10
7559.144296475287
 20
38307.6826763723
 30
0.0
 11
7567.030059091585
 21
38315.5684389886
 31
0.0
  0
LINE
  5
AC
330
2B
100
AcDbEntity
  8
0
 62
     0
100
AcDbLine
 10
7559.600880107381
 20
38307.7857066138
 30
0.0
 11
7566.927028850085
 21
38315.11185535651
 31
0.0
  0
LINE
  5
AD
330
2B
100
AcDbEntity
  8
0
 62
     0
100
AcDbLine
 10
7560.089997715171
 20
38307.921270831
 30
0.0
 11
7566.791464632887
 21
38314.62273774871
 31
0.0
  0
LINE
  5
AE
330
2B
100
AcDbEntity
  8
0
 62
     0
100
AcDbLine
 10
7560.621808358416
 20
38308.09952808365
 30
0.0
 11
7566.613207380235
 21
38314.09092710547
 31
0.0
  0
LINE
  5
AF
330
2B
100
AcDbEntity
  8
0
 62
     0
100
AcDbLine
 10
7561.213874439379
 20
38308.33804077402
 30
0.0
 11
7566.374694689867
 21
38313.49886102451
 31
0.0
  0
LINE
  5
B0
330
2B
100
AcDbEntity
  8
0
 62
     0
100
AcDbLine
 10
7561.902168497637
 20
38308.67278144168
 30
0.0
 11
7566.039954022198
 21
38312.81056696623
 31
0.0
  0
LINE
  5
B1
330
2B
100
AcDbEntity
  8
0
 62
     0
100
AcDbLine
 10
7562.79151272998
 20
38309.20857228344
 30
0.0
 11
7565.504163180455
 21
38311.92122273391
 31
0.0
  0
ENDBLK
  5
B3
330
2B
100
AcDbEntity
  8
0
100
AcDbBlockEnd
  0
BLOCK
  5
11A
330
B4
100
AcDbEntity
  8
0
100
AcDbBlockBegin
  2
*X1
 70
     1
 10
0.0
 20
0.0
 30
0.0
  3
*X1
  1

  0
LINE
  5
B5
330
B4
100
AcDbEntity
  8
0
 62
     0
100
AcDbLine
 10
7553.289389401773
 20
38313.49503118836
 30
0.0
 11
7555.458345098933
 21
38315.66398688551
 31
0.0
  0
LINE
  5
B6
330
B4
100
AcDbEntity
  8
0
 62
     0
100
AcDbLine
 10
7560.794536128462
 20
38321.00017791504
 30
0.0
 11
7561.354568330577
 21
38321.56021011717
 31
0.0
  0
LINE
  5
B7
330
B4
100
AcDbEntity
  8
0
 62
     0
100
AcDbLine
 10
7559.019054803965
 20
38319.22469659056
 30
0.0
 11
7559.357830739061
 21
38319.56347252564
 31
0.0
  0
LINE
  5
B8
330
B4
100
AcDbEntity
  8
0
 62
     0
100
AcDbLine
 10
7553.109989373834
 20
38313.66918455102
 30
0.0
 11
7555.332128576691
 21
38315.89132375388
 31
0.0
  0
LINE
  5
B9
330
B4
100
AcDbEntity
  8
0
 62
     0
100
AcDbLine
 10
7560.607236613869
 20
38321.16643179104
 30
0.0
 11
7561.180414967921
 21
38321.73961014511
 31
0.0
  0
LINE
  5
BA
330
B4
100
AcDbEntity
  8
0
 62
     0
100
AcDbLine
 10
7558.665501413371
 20
38319.22469659056
 30
0.0
 11
7559.004277348468
 21
38319.56347252564
 31
0.0
  0
LINE
  5
BB
330
B4
100
AcDbEntity
  8
0
 62
     0
100
AcDbLine
 10
7552.938337776616
 20
38313.85108634438
 30
0.0
 11
7555.20591205445
 21
38316.11866062223
 31
0.0
  0
LINE
  5
BC
330
B4
100
AcDbEntity
  8
0
 62
     0
100
AcDbLine
 10
7560.398645619021
 20
38321.3113941868
 30
0.0
 11
7560.998513174547
 21
38321.91126174233
 31
0.0
  0
LINE
  5
BD
330
B4
100
AcDbEntity
  8
0
 62
     0
100
AcDbLine
 10
7558.311948022776
 20
38319.22469659056
 30
0.0
 11
7558.650723957874
 21
38319.56347252564
 31
0.0
  0
LINE
  5
BE
330
B4
100
AcDbEntity
  8
0
 62
     0
100
AcDbLine
 10
7552.774464269912
 20
38314.04076622829
 30
0.0
 11
7555.079695532207
 21
38316.34599749058
 31
0.0
  0
LINE
  5
BF
330
B4
100
AcDbEntity
  8
0
 62
     0
100
AcDbLine
 10
7560.167320354981
 20
38321.43362231335
 30
0.0
 11
7560.808833290656
 21
38322.07513524903
 31
0.0
  0
LINE
  5
C0
330
B4
100
AcDbEntity
  8
0
 62
     0
100
AcDbLine
 10
7557.958394632183
 20
38319.22469659056
 30
0.0
 11
7558.29717056728
 21
38319.56347252564
 31
0.0
  0
LINE
  5
C1
330
B4
100
AcDbEntity
  8
0
 62
     0
100
AcDbLine
 10
7552.61844418819
 20
38314.23829953715
 30
0.0
 11
7554.953479009966
 21
38316.57333435893
 31
0.0
  0
LINE
  5
C2
330
B4
100
AcDbEntity
  8
0
 62
     0
100
AcDbLine
 10
7559.910461533106
 20
38321.53031688207
 30
0.0
 11
7560.611299981786
 21
38322.23115533075
 31
0.0
  0
LINE
  5
C3
330
B4
100
AcDbEntity
  8
0
 62
     0
100
AcDbLine
 10
7557.60484124159
 20
38319.22469659056
 30
0.0
 11
7557.943617176687
 21
38319.56347252564
 31
0.0
  0
LINE
  5
C4
330
B4
100
AcDbEntity
  8
0
 62
     0
100
AcDbLine
 10
7552.470400785671
 20
38314.44380952522
 30
0.0
 11
7554.827262487724
 21
38316.80067122728
 31
0.0
  0
LINE
  5
C5
330
B4
100
AcDbEntity
  8
0
 62
     0
100
AcDbLine
 10
7559.623039029709
 20
38321.59644776926
 30
0.0
 11
7560.405789993715
 21
38322.37919873326
 31
0.0
  0
LINE
  5
C6
330
B4
100
AcDbEntity
  8
0
 62
     0
100
AcDbLine
 10
7557.251287850997
 20
38319.22469659056
 30
0.0
 11
7557.590063786093
 21
38319.56347252564
 31
0.0
  0
LINE
  5
C7
330
B4
100
AcDbEntity
  8
0
 62
     0
100
AcDbLine
 10
7552.330508981397
 20
38314.65747111154
 30
0.0
 11
7554.701045965481
 21
38317.02800809564
 31
0.0
  0
LINE
  5
C8
330
B4
100
AcDbEntity
  8
0
 62
     0
100
AcDbLine
 10
7559.295580661149
 20
38321.6225427913
 30
0.0
 11
7560.192128407392
 21
38322.51909053755
 31
0.0
  0
LINE
  5
C9
330
B4
100
AcDbEntity
  8
0
 62
     0
100
AcDbLine
 10
7556.897734460402
 20
38319.22469659056
 30
0.0
 11
7557.236510395501
 21
38319.56347252564
 31
0.0
  0
LINE
  5
CA
330
B4
100
AcDbEntity
  8
0
 62
     0
100
AcDbLine
 10
7552.199000911461
 20
38314.8795164322
 30
0.0
 11
7554.574829443239
 21
38317.25534496399
 31
0.0
  0
LINE
  5
CB
330
B4
100
AcDbEntity
  8
0
 62
     0
100
AcDbLine
 10
7558.90716733662
 20
38321.58768285736
 30
0.0
 11
7559.970083086739
 21
38322.65059860747
 31
0.0
  0
LINE
  5
CC
330
B4
100
AcDbEntity
  8
0
 62
     0
100
AcDbLine
 10
7556.544181069809
 20
38319.22469659056
 30
0.0
 11
7556.882957004908
 21
38319.56347252564
 31
0.0
  0
LINE
  5
CD
330
B4
100
AcDbEntity
  8
0
 62
     0
100
AcDbLine
 10
7557.184403641975
 20
38319.86491916272
 30
0.0
 11
7557.197799616639
 21
38319.87831513739
 31
0.0
  0
LINE
  5
CE
330
B4
100
AcDbEntity
  8
0
 62
     0
100
AcDbLine
 10
7552.076173718997
 20
38315.11024263033
 30
0.0
 11
7554.448612920997
 21
38317.48268183233
 31
0.0
  0
LINE
  5
CF
330
B4
100
AcDbEntity
  8
0
 62
     0
100
AcDbLine
 10
7558.387008671386
 20
38321.42107758272
 30
0.0
 11
7559.739356888609
 21
38322.77342579994
 31
0.0
  0
LINE
  5
D0
330
B4
100
AcDbEntity
  8
0
 62
     0
100
AcDbLine
 10
7556.190627679218
 20
38319.22469659056
 30
0.0
 11
7556.529403614314
 21
38319.56347252564
 31
0.0
  0
LINE
  5
D1
330
B4
100
AcDbEntity
  8
0
 62
     0
100
AcDbLine
 10
7557.129727291645
 20
38320.16379620298
 30
0.0
 11
7557.364404891282
 21
38320.39847380261
 31
0.0
  0
LINE
  5
D2
330
B4
100
AcDbEntity
  8
0
 62
     0
100
AcDbLine
 10
7551.962400197807
 20
38315.35002249973
 30
0.0
 11
7554.322396398756
 21
38317.71001870068
 31
0.0
  0
LINE
  5
D3
330
B4
100
AcDbEntity
  8
0
 62
     0
100
AcDbLine
 10
7557.039438403371
 20
38320.42706070529
 30
0.0
 11
7559.499577019201
 21
38322.88719932113
 31
0.0
  0
LINE
  5
D4
330
B4
100
AcDbEntity
  8
0
 62
     0
100
AcDbLine
 10
7555.837074288625
 20
38319.22469659056
 30
0.0
 11
7556.175850223721
 21
38319.56347252564
 31
0.0
  0
LINE
  5
D5
330
B4
100
AcDbEntity
  8
0
 62
     0
100
AcDbLine
 10
7551.85814330748
 20
38315.59931900001
 30
0.0
 11
7554.196179876512
 21
38317.93735556903
 31
0.0
  0
LINE
  5
D6
330
B4
100
AcDbEntity
  8
0
 62
     0
100
AcDbLine
 10
7556.920470549371
 20
38320.6616462419
 30
0.0
 11
7559.250280518938
 21
38322.99145621146
 31
0.0
  0
LINE
  5
D7
330
B4
100
AcDbEntity
  8
0
 62
     0
100
AcDbLine
 10
7555.483520898031
 20
38319.22469659056
 30
0.0
 11
7555.822296833127
 21
38319.56347252564
 31
0.0
  0
LINE
  5
D8
330
B4
100
AcDbEntity
  8
0
 62
     0
100
AcDbLine
 10
7551.763975977491
 20
38315.8587050606
 30
0.0
 11
7554.069963354272
 21
38318.16469243738
 31
0.0
  0
LINE
  5
D9
330
B4
100
AcDbEntity
  8
0
 62
     0
100
AcDbLine
 10
7556.776461923317
 20
38320.87119100643
 30
0.0
 11
7558.990894458334
 21
38323.08562354144
 31
0.0
  0
LINE
  5
DA
330
B4
100
AcDbEntity
  8
0
 62
     0
100
AcDbLine
 10
7555.129967507437
 20
38319.22469659056
 30
0.0
 11
7555.468743442535
 21
38319.56347252564
 31
0.0
  0
LINE
  5
DB
330
B4
100
AcDbEntity
  8
0
 62
     0
100
AcDbLine
 10
7551.680608492969
 20
38316.12889096667
 30
0.0
 11
7553.94374683203
 21
38318.39202930574
 31
0.0
  0
LINE
  5
DC
330
B4
100
AcDbEntity
  8
0
 62
     0
100
AcDbLine
 10
7556.60919950137
 20
38321.05748197508
 30
0.0
 11
7558.720708552262
 21
38323.16899102596
 31
0.0
  0
LINE
  5
DD
330
B4
100
AcDbEntity
  8
0
 62
     0
100
AcDbLine
 10
7554.776414116844
 20
38319.22469659056
 30
0.0
 11
7555.115190051941
 21
38319.56347252564
 31
0.0
  0
LINE
  5
DE
330
B4
100
AcDbEntity
  8
0
 62
     0
100
AcDbLine
 10
7551.608926958635
 20
38316.41076282294
 30
0.0
 11
7553.817530309787
 21
38318.61936617408
 31
0.0
  0
LINE
  5
DF
330
B4
100
AcDbEntity
  8
0
 62
     0
100
AcDbLine
 10
7556.419169571674
 20
38321.22100543598
 30
0.0
 11
7558.438836696002
 21
38323.24067256029
 31
0.0
  0
LINE
  5
E0
330
B4
100
AcDbEntity
  8
0
 62
     0
100
AcDbLine
 10
7554.422860726251
 20
38319.22469659056
 30
0.0
 11
7554.761636661348
 21
38319.56347252564
 31
0.0
  0
LINE
  5
E1
330
B4
100
AcDbEntity
  8
0
 62
     0
100
AcDbLine
 10
7551.550048674489
 20
38316.70543792937
 30
0.0
 11
7553.691313787545
 21
38318.84670304243
 31
0.0
  0
LINE
  5
E2
330
B4
100
AcDbEntity
  8
0
 62
     0
100
AcDbLine
 10
7556.205690885071
 20
38321.36108013997
 30
0.0
 11
7558.144161589556
 21
38323.29955084445
 31
0.0
  0
LINE
  5
E3
330
B4
100
AcDbEntity
  8
0
 62
     0
100
AcDbLine
 10
7554.069307335658
 20
38319.22469659056
 30
0.0
 11
7554.408083270754
 21
38319.56347252564
 31
0.0
  0
LINE
  5
E4
330
B4
100
AcDbEntity
  8
0
 62
     0
100
AcDbLine
 10
7551.505404137372
 20
38317.01434678286
 30
0.0
 11
7553.565097265305
 21
38319.07403991078
 31
0.0
  0
LINE
  5
E5
330
B4
100
AcDbEntity
  8
0
 62
     0
100
AcDbLine
 10
7555.966726155499
 20
38321.47566880098
 30
0.0
 11
7557.835252736079
 21
38323.34419538157
 31
0.0
  0
LINE
  5
E6
330
B4
100
AcDbEntity
  8
0
 62
     0
100
AcDbLine
 10
7553.715753945065
 20
38319.22469659056
 30
0.0
 11
7554.05452988016
 21
38319.56347252564
 31
0.0
  0
LINE
  5
E7
330
B4
100
AcDbEntity
  8
0
 62
     0
100
AcDbLine
 10
7551.476863101601
 20
38317.33935913769
 30
0.0
 11
7553.70097648957
 21
38319.56347252564
 31
0.0
  0
LINE
  5
E8
330
B4
100
AcDbEntity
  8
0
 62
     0
100
AcDbLine
 10
7555.698234172867
 20
38321.56073020895
 30
0.0
 11
7557.510240381256
 21
38323.37273641734
 31
0.0
  0
LINE
  5
E9
330
B4
100
AcDbEntity
  8
0
 62
     0
100
AcDbLine
 10
7551.466937350125
 20
38317.6829867768
 30
0.0
 11
7553.347423098975
 21
38319.56347252564
 31
0.0
  0
LINE
  5
EA
330
B4
100
AcDbEntity
  8
0
 62
     0
100
AcDbLine
 10
7555.392473416825
 20
38321.6085228435
 30
0.0
 11
7557.166612742141
 21
38323.38266216882
 31
0.0
  0
LINE
  5
EB
330
B4
100
AcDbEntity
  8
0
 62
     0
100
AcDbLine
 10
7551.479126421821
 20
38318.04872923909
 30
0.0
 11
7553.30736082011
 21
38319.87696363738
 31
0.0
  0
LINE
  5
EC
330
B4
100
AcDbEntity
  8
0
 62
     0
100
AcDbLine
 10
7555.032887560784
 20
38321.60249037805
 30
0.0
 11
7556.800870279849
 21
38323.37047309712
 31
0.0
  0
LINE
  5
ED
330
B4
100
AcDbEntity
  8
0
 62
     0
100
AcDbLine
 10
7551.518553177699
 20
38318.44170938556
 30
0.0
 11
7553.416286524765
 21
38320.33944273263
 31
0.0
  0
LINE
  5
EE
330
B4
100
AcDbEntity
  8
0
 62
     0
100
AcDbLine
 10
7554.570408465536
 20
38321.4935646734
 30
0.0
 11
7556.40789013338
 21
38323.33104634125
 31
0.0
  0
LINE
  5
EF
330
B4
100
AcDbEntity
  8
0
 62
     0
100
AcDbLine
 10
7551.593258123006
 20
38318.86996772146
 30
0.0
 11
7555.97963179748
 21
38323.25634139593
 31
0.0
  0
LINE
  5
F0
330
B4
100
AcDbEntity
  8
0
 62
     0
100
AcDbLine
 10
7551.717253661313
 20
38319.34751665036
 30
0.0
 11
7555.50208286858
 21
38323.13234585763
 31
0.0
  0
LINE
  5
F1
330
B4
100
AcDbEntity
  8
0
 62
     0
100
AcDbLine
 10
7551.919650816836
 20
38319.90346719647
 30
0.0
 11
7554.946132322462
 21
38322.9299487021
 31
0.0
  0
LINE
  5
F2
330
B4
100
AcDbEntity
  8
0
 62
     0
100
AcDbLine
 10
7552.288611848517
 20
38320.62598161876
 30
0.0
 11
7554.223617900189
 21
38322.56098767042
 31
0.0
  0
LINE
  5
F3
330
B4
100
AcDbEntity
  8
0
 62
     0
100
AcDbLine
 10
7553.476553024063
 20
38313.32864142006
 30
0.0
 11
7555.584561621175
 21
38315.43665001716
 31
0.0
  0
LINE
  5
F4
330
B4
100
AcDbEntity
  8
0
 62
     0
100
AcDbLine
 10
7560.960994048435
 20
38320.81308244443
 30
0.0
 11
7561.520958098879
 21
38321.37304649488
 31
0.0
  0
LINE
  5
F5
330
B4
100
AcDbEntity
  8
0
 62
     0
100
AcDbLine
 10
7559.372608194557
 20
38319.22469659056
 30
0.0
 11
7559.711384129655
 21
38319.56347252564
 31
0.0
  0
LINE
  5
F6
330
B4
100
AcDbEntity
  8
0
 62
     0
100
AcDbLine
 10
7553.671540658013
 20
38313.17007566341
 30
0.0
 11
7555.710778143417
 21
38315.20931314882
 31
0.0
  0
LINE
  5
F7
330
B4
100
AcDbEntity
  8
0
 62
     0
100
AcDbLine
 10
7561.106169335818
 20
38320.60470434122
 30
0.0
 11
7561.679523855524
 21
38321.17805886093
 31
0.0
  0
LINE
  5
F8
330
B4
100
AcDbEntity
  8
0
 62
     0
100
AcDbLine
 10
7559.72616158515
 20
38319.22469659056
 30
0.0
 11
7560.064937520246
 21
38319.56347252564
 31
0.0
  0
LINE
  5
F9
330
B4
100
AcDbEntity
  8
0
 62
     0
100
AcDbLine
 10
7553.874459761992
 20
38313.0194413768
 30
0.0
 11
7555.83699466566
 21
38314.98197628047
 31
0.0
  0
LINE
  5
FA
330
B4
100
AcDbEntity
  8
0
 62
     0
100
AcDbLine
 10
7561.228630106872
 20
38320.37361172168
 30
0.0
 11
7561.830158142139
 21
38320.97513975694
 31
0.0
  0
LINE
  5
FB
330
B4
100
AcDbEntity
  8
0
 62
     0
100
AcDbLine
 10
7560.079714975744
 20
38319.22469659056
 30
0.0
 11
7560.418490910841
 21
38319.56347252564
 31
0.0
  0
LINE
  5
FC
330
B4
100
AcDbEntity
  8
0
 62
     0
100
AcDbLine
 10
7554.08546806322
 20
38312.87689628743
 30
0.0
 11
7555.9632111879
 21
38314.75463941211
 31
0.0
  0
LINE
  5
FD
330
B4
100
AcDbEntity
  8
0
 62
     0
100
AcDbLine
 10
7561.325593339152
 20
38320.11702156337
 30
0.0
 11
7561.972703231503
 21
38320.76413145572
 31
0.0
  0
LINE
  5
FE
330
B4
100
AcDbEntity
  8
0
 62
     0
100
AcDbLine
 10
7560.433268366337
 20
38319.22469659056
 30
0.0
 11
7560.772044301433
 21
38319.56347252564
 31
0.0
  0
LINE
  5
FF
330
B4
100
AcDbEntity
  8
0
 62
     0
100
AcDbLine
 10
7554.304778505309
 20
38312.74265333894
 30
0.0
 11
7556.089427710144
 21
38314.52730254377
 31
0.0
  0
LINE
  5
100
330
B4
100
AcDbEntity
  8
0
 62
     0
100
AcDbLine
 10
7561.392057933986
 20
38319.82993276761
 30
0.0
 11
7562.106946180006
 21
38320.54482101363
 31
0.0
  0
LINE
  5
101
330
B4
100
AcDbEntity
  8
0
 62
     0
100
AcDbLine
 10
7560.786821756932
 20
38319.22469659056
 30
0.0
 11
7561.125597692026
 21
38319.56347252564
 31
0.0
  0
LINE
  5
102
330
B4
100
AcDbEntity
  8
0
 62
     0
100
AcDbLine
 10
7554.532666234876
 20
38312.61698767791
 30
0.0
 11
7556.215644232385
 21
38314.29996567541
 31
0.0
  0
LINE
  5
103
330
B4
100
AcDbEntity
  8
0
 62
     0
100
AcDbLine
 10
7561.140375147522
 20
38319.22469659056
 30
0.0
 11
7562.232611841034
 21
38320.31693328407
 31
0.0
  0
LINE
  5
104
330
B4
100
AcDbEntity
  8
0
 62
     0
100
AcDbLine
 10
7554.769478260421
 20
38312.50024631286
 30
0.0
 11
7556.341860754627
 21
38314.07262880706
 31
0.0
  0
LINE
  5
105
330
B4
100
AcDbEntity
  8
0
 62
     0
100
AcDbLine
 10
7560.80343762587
 20
38318.53420567831
 30
0.0
 11
7562.349353206084
 21
38320.08012125852
 31
0.0
  0
LINE
  5
106
330
B4
100
AcDbEntity
  8
0
 62
     0
100
AcDbLine
 10
7555.015646565514
 20
38312.39286122736
 30
0.0
 11
7556.468077276869
 21
38313.84529193871
 31
0.0
  0
LINE
  5
107
330
B4
100
AcDbEntity
  8
0
 62
     0
100
AcDbLine
 10
7560.266912057572
 20
38317.64412671941
 30
0.0
 11
7562.456738291583
 21
38319.83395295342
 31
0.0
  0
LINE
  5
108
330
B4
100
AcDbEntity
  8
0
 62
     0
100
AcDbLine
 10
7555.271706022252
 20
38312.2953672935
 30
0.0
 11
7556.594293799111
 21
38313.61795507037
 31
0.0
  0
LINE
  5
109
330
B4
100
AcDbEntity
  8
0
 62
     0
100
AcDbLine
 10
7559.730386489274
 20
38316.75404776053
 30
0.0
 11
7562.554232225437
 21
38319.57789349668
 31
0.0
  0
LINE
  5
10A
330
B4
100
AcDbEntity
  8
0
 62
     0
100
AcDbLine
 10
7555.538319000807
 20
38312.20842688146
 30
0.0
 11
7556.720510321352
 21
38313.39061820201
 31
0.0
  0
LINE
  5
10B
330
B4
100
AcDbEntity
  8
0
 62
     0
100
AcDbLine
 10
7559.193860920976
 20
38315.86396880163
 30
0.0
 11
7562.641172637476
 21
38319.31128051813
 31
0.0
  0
LINE
  5
10C
330
B4
100
AcDbEntity
  8
0
 62
     0
100
AcDbLine
 10
7555.816309780488
 20
38312.13286427054
 30
0.0
 11
7556.846726843595
 21
38313.16328133366
 31
0.0
  0
LINE
  5
10D
330
B4
100
AcDbEntity
  8
0
 62
     0
100
AcDbLine
 10
7558.657335352676
 20
38314.97388984273
 30
0.0
 11
7562.716735248388
 21
38319.03328973846
 31
0.0
  0
LINE
  5
10E
330
B4
100
AcDbEntity
  8
0
 62
     0
100
AcDbLine
 10
7556.106713624799
 20
38312.06971472426
 30
0.0
 11
7556.972943365838
 21
38312.93594446531
 31
0.0
  0
LINE
  5
10F
330
B4
100
AcDbEntity
  8
0
 62
     0
100
AcDbLine
 10
7558.120809784377
 20
38314.08381088385
 30
0.0
 11
7562.779884794668
 21
38318.74288589413
 31
0.0
  0
LINE
  5
110
330
B4
100
AcDbEntity
  8
0
 62
     0
100
AcDbLine
 10
7556.410848764961
 20
38312.02029647383
 30
0.0
 11
7557.099159888078
 21
38312.70860759696
 31
0.0
  0
LINE
  5
111
330
B4
100
AcDbEntity
  8
0
 62
     0
100
AcDbLine
 10
7557.58428421608
 20
38313.19373192496
 30
0.0
 11
7562.829303045102
 21
38318.43875075398
 31
0.0
  0
LINE
  5
112
330
B4
100
AcDbEntity
  8
0
 62
     0
100
AcDbLine
 10
7556.730425641693
 20
38311.98631995997
 30
0.0
 11
7562.86327955896
 21
38318.11917387724
 31
0.0
  0
LINE
  5
113
330
B4
100
AcDbEntity
  8
0
 62
     0
100
AcDbLine
 10
7557.067719840117
 20
38311.97006076781
 30
0.0
 11
7562.879538751133
 21
38317.78187967882
 31
0.0
  0
LINE
  5
114
330
B4
100
AcDbEntity
  8
0
 62
     0
100
AcDbLine
 10
7557.425861033109
 20
38311.97464857021
 30
0.0
 11
7562.874950948732
 21
38317.42373848582
 31
0.0
  0
LINE
  5
115
330
B4
100
AcDbEntity
  8
0
 62
     0
100
AcDbLine
 10
7557.809350146492
 20
38312.00458429299
 30
0.0
 11
7562.845015225946
 21
38317.04024937245
 31
0.0
  0
LINE
  5
116
330
B4
100
AcDbEntity
  8
0
 62
     0
100
AcDbLine
 10
7558.225074532694
 20
38312.06675528861
 30
0.0
 11
7562.782844230333
 21
38316.62452498623
 31
0.0
  0
LINE
  5
117
330
B4
100
AcDbEntity
  8
0
 62
     0
100
AcDbLine
 10
7558.684576858424
 20
38312.17270422373
 30
0.0
 11
7562.676895295202
 21
38316.16502266052
 31
0.0
  0
LINE
  5
118
330
B4
100
AcDbEntity
  8
0
 62
     0
100
AcDbLine
 10
7559.210246223783
 20
38312.3448201985
 30
0.0
 11
7562.504779320431
 21
38315.63935329516
 31
0.0
  0
LINE
  5
119
330
B4
100
AcDbEntity
  8
0
 62
     0
100
AcDbLine
 10
7559.859630984184
 20
38312.64065156831
 30
0.0
 11
7562.208947950627
 21
38314.98996853476
 31
0.0
  0
ENDBLK
  5
11B
330
B4
100
AcDbEntity
  8
0
100
AcDbBlockEnd
  0
BLOCK
  5
144
330
11C
100
AcDbEntity
  8
0
100
AcDbBlockBegin
  2
*X2
 70
     1
 10
0.0
 20
0.0
 30
0.0
  3
*X2
  1

  0
LINE
  5
11D
330
11C
100
AcDbEntity
  8
0
 62
     0
100
AcDbLine
 10
372.1063978046202
 20
83.03195326740427
 30
0.0
 11
372.2812410846739
 21
83.20679654745799
 31
0.0
  0
LINE
  5
11E
330
11C
100
AcDbEntity
  8
0
 62
     0
100
AcDbLine
 10
373.7443314109918
 20
84.66988687377579
 30
0.0
 11
373.8663713641465
 21
84.79192682693053
 31
0.0
  0
LINE
  5
11F
330
11C
100
AcDbEntity
  8
0
 62
     0
100
AcDbLine
 10
372.6061865363405
 20
83.53174199912444
 30
0.0
 11
372.790097737395
 21
83.715653200179
 31
0.0
  0
LINE
  5
120
330
11C
100
AcDbEntity
  8
0
 62
     0
100
AcDbLine
 10
373.3027425985078
 20
84.22829806129195
 30
0.0
 11
373.4439621650471
 21
84.36951762783113
 31
0.0
  0
LINE
  5
121
330
11C
100
AcDbEntity
  8
0
 62
     0
100
AcDbLine
 10
372.1063971660783
 20
83.30136031249439
 30
0.0
 11
372.2743895677847
 21
83.46935271420091
 31
0.0
  0
LINE
  5
122
330
11C
100
AcDbEntity
  8
0
 62
     0
100
AcDbLine
 10
373.6049177113483
 20
84.79988085776453
 30
0.0
 11
373.7239491952925
 21
84.91891234170855
 31
0.0
  0
LINE
  5
123
330
11C
100
AcDbEntity
  8
0
 62
     0
100
AcDbLine
 10
372.581938027227
 20
83.77690117364313
 30
0.0
 11
372.7039839498887
 21
83.89894709630475
 31
0.0
  0
LINE
  5
124
330
11C
100
AcDbEntity
  8
0
 62
     0
100
AcDbLine
 10
373.219699833935
 20
84.41466298035129
 30
0.0
 11
373.3619119567568
 21
84.55687510317289
 31
0.0
  0
LINE
  5
125
330
11C
100
AcDbEntity
  8
0
 62
     0
100
AcDbLine
 10
372.1063965275364
 20
83.57076735758449
 30
0.0
 11
372.2743895677847
 21
83.73876039783295
 31
0.0
  0
LINE
  5
126
330
11C
100
AcDbEntity
  8
0
 62
     0
100
AcDbLine
 10
373.1685793667896
 20
84.63295019683789
 30
0.0
 11
373.4976976893315
 21
84.9620685193798
 31
0.0
  0
LINE
  5
127
330
11C
100
AcDbEntity
  8
0
 62
     0
100
AcDbLine
 10
372.4427685189385
 20
83.90713934898663
 30
0.0
 11
372.7919712130441
 21
84.25634204309236
 31
0.0
  0
LINE
  5
128
330
11C
100
AcDbEntity
  8
0
 62
     0
100
AcDbLine
 10
372.1063958889943
 20
83.84017440267461
 30
0.0
 11
372.31383999307
 21
84.04761850675022
 31
0.0
  0
LINE
  5
129
330
11C
100
AcDbEntity
  8
0
 62
     0
100
AcDbLine
 10
372.6061865363405
 20
84.3399650500207
 30
0.0
 11
372.7962188269013
 21
84.52999734058158
 31
0.0
  0
LINE
  5
12A
330
11C
100
AcDbEntity
  8
0
 62
     0
100
AcDbLine
 10
372.1063952504523
 20
84.1095814477647
 30
0.0
 11
372.2743895677847
 21
84.27757576509712
 31
0.0
  0
LINE
  5
12B
330
11C
100
AcDbEntity
  8
0
 62
     0
100
AcDbLine
 10
372.6021530828691
 20
84.60533928018138
 30
0.0
 11
372.750110373326
 21
84.75329657063836
 31
0.0
  0
LINE
  5
12C
330
11C
100
AcDbEntity
  8
0
 62
     0
100
AcDbLine
 10
372.1063946119105
 20
84.37898849285483
 30
0.0
 11
372.2743895677847
 21
84.5469834487292
 31
0.0
  0
LINE
  5
12D
330
11C
100
AcDbEntity
  8
0
 62
     0
100
AcDbLine
 10
372.4976223608854
 20
84.77021624182992
 30
0.0
 11
372.6225357133269
 21
84.89512959427139
 31
0.0
  0
LINE
  5
12E
330
11C
100
AcDbEntity
  8
0
 62
     0
100
AcDbLine
 10
372.1063939733685
 20
84.6483955379449
 30
0.0
 11
372.4215237301031
 21
84.96352529467953
 31
0.0
  0
LINE
  5
12F
330
11C
100
AcDbEntity
  8
0
 62
     0
100
AcDbLine
 10
372.1063933348265
 20
84.91780258303505
 30
0.0
 11
372.1527195716128
 21
84.9641288198215
 31
0.0
  0
LINE
  5
130
330
11C
100
AcDbEntity
  8
0
 62
     0
100
AcDbLine
 10
372.3572930280191
 20
83.01344080717113
 30
0.0
 11
372.5004134710123
 21
83.15656125016435
 31
0.0
  0
LINE
  5
131
330
11C
100
AcDbEntity
  8
0
 62
     0
100
AcDbLine
 10
373.7517460783588
 20
84.40789385751077
 30
0.0
 11
373.9331567479222
 21
84.58930452707424
 31
0.0
  0
LINE
  5
132
330
11C
100
AcDbEntity
  8
0
 62
     0
100
AcDbLine
 10
372.556488182118
 20
83.21263596126994
 30
0.0
 11
372.7962188269013
 21
83.45236660605328
 31
0.0
  0
LINE
  5
133
330
11C
100
AcDbEntity
  8
0
 62
     0
100
AcDbLine
 10
373.3857853630806
 20
84.04193314223268
 30
0.0
 11
373.5264795758177
 21
84.18262735496961
 31
0.0
  0
LINE
  5
134
330
11C
100
AcDbEntity
  8
0
 62
     0
100
AcDbLine
 10
373.1373996744719
 20
83.52413976999171
 30
0.0
 11
373.2242727706726
 21
83.61101286619247
 31
0.0
  0
LINE
  5
135
330
11C
100
AcDbEntity
  8
0
 62
     0
100
AcDbLine
 10
374.3420248344021
 20
84.72876492992202
 30
0.0
 11
374.5478243803601
 21
84.93456447588
 31
0.0
  0
LINE
  5
136
330
11C
100
AcDbEntity
  8
0
 62
     0
100
AcDbLine
 10
373.4688281276535
 20
83.85556822317333
 30
0.0
 11
373.6089969865882
 21
83.99573708210807
 31
0.0
  0
LINE
  5
137
330
11C
100
AcDbEntity
  8
0
 62
     0
100
AcDbLine
 10
373.8973152481491
 20
84.284055343669
 30
0.0
 11
373.9334883188031
 21
84.32022841432297
 31
0.0
  0
LINE
  5
138
330
11C
100
AcDbEntity
  8
0
 62
     0
100
AcDbLine
 10
373.1615109641625
 20
83.27884337605038
 30
0.0
 11
373.3137987987465
 21
83.43113121063426
 31
0.0
  0
LINE
  5
139
330
11C
100
AcDbEntity
  8
0
 62
     0
100
AcDbLine
 10
374.3420248344021
 20
84.45935724628993
 30
0.0
 11
374.5478243803601
 21
84.66515679224798
 31
0.0
  0
LINE
  5
13A
330
11C
100
AcDbEntity
  8
0
 62
     0
100
AcDbLine
 10
373.5518708922262
 20
83.66920330411401
 30
0.0
 11
373.6915143973587
 21
83.80884680924657
 31
0.0
  0
LINE
  5
13B
330
11C
100
AcDbEntity
  8
0
 62
     0
100
AcDbLine
 10
373.2714257053095
 20
83.11935043356532
 30
0.0
 11
373.3698987443306
 21
83.21782347258645
 31
0.0
  0
LINE
  5
13C
330
11C
100
AcDbEntity
  8
0
 62
     0
100
AcDbLine
 10
374.3420248344021
 20
84.18994956265782
 30
0.0
 11
374.5478243803601
 21
84.39574910861592
 31
0.0
  0
LINE
  5
13D
330
11C
100
AcDbEntity
  8
0
 62
     0
100
AcDbLine
 10
373.634913656799
 20
83.48283838505471
 30
0.0
 11
373.7740318081293
 21
83.62195653638501
 31
0.0
  0
LINE
  5
13E
330
11C
100
AcDbEntity
  8
0
 62
     0
100
AcDbLine
 10
373.4520792419187
 20
83.0305962865424
 30
0.0
 11
373.8565492188998
 21
83.43506626352349
 31
0.0
  0
LINE
  5
13F
330
11C
100
AcDbEntity
  8
0
 62
     0
100
AcDbLine
 10
374.3420248344021
 20
83.92054187902575
 30
0.0
 11
374.5478243803601
 21
84.12634142498388
 31
0.0
  0
LINE
  5
140
330
11C
100
AcDbEntity
  8
0
 62
     0
100
AcDbLine
 10
374.342024834402
 20
83.65113419539364
 30
0.0
 11
374.5478243803601
 21
83.85693374135181
 31
0.0
  0
LINE
  5
141
330
11C
100
AcDbEntity
  8
0
 62
     0
100
AcDbLine
 10
374.342024834402
 20
83.38172651176156
 30
0.0
 11
374.5478243803603
 21
83.5875260577198
 31
0.0
  0
LINE
  5
142
330
11C
100
AcDbEntity
  8
0
 62
     0
100
AcDbLine
 10
374.342024834402
 20
83.1123188281295
 30
0.0
 11
374.5478243803603
 21
83.31811837408777
 31
0.0
  0
LINE
  5
143
330
11C
100
AcDbEntity
  8
0
 62
     0
100
AcDbLine
 10
374.5125544970758
 20
83.01344080717113
 30
0.0
 11
374.5478243803603
 21
83.04871069045567
 31
0.0
  0
ENDBLK
  5
145
330
11C
100
AcDbEntity
  8
0
100
AcDbBlockEnd
  0
BLOCK
  5
242
330
241
100
AcDbEntity
  8
0
100
AcDbBlockBegin
  2
A4 sheet
 70
     2
 10
0.0
 20
0.0
 30
0.0
  3
A4 sheet
  1

  0
LINE
  5
169E
330
241
100
AcDbEntity
  8
A4 SHEET
 62
     5
100
AcDbLine
 10
55.05837208140106
 20
52.24001759701833
 30
0.0
 11
147.85007084421
 21
52.24001759701831
 31
0.0
  0
LINE
  5
169F
330
241
100
AcDbEntity
  8
A4 SHEET
 62
     5
100
AcDbLine
 10
55.05837208140104
 20
38.50796517014735
 30
0.0
 11
147.85007084421
 21
38.50796517014734
 31
0.0
  0
LINE
  5
16A0
330
241
100
AcDbEntity
  8
A4 SHEET
 62
     5
100
AcDbLine
 10
55.05837208140104
 20
37.50796517014735
 30
0.0
 11
147.85007084421
 21
37.50796517014734
 31
0.0
  0
LINE
  5
16A1
330
241
100
AcDbEntity
  8
A4 SHEET
 62
     5
100
AcDbLine
 10
55.05837208140104
 20
3.570207746060006
 30
0.0
 11
147.85007084421
 21
3.570207746060006
 31
0.0
  0
LINE
  5
16A2
330
241
100
AcDbEntity
  8
A4 SHEET
 62
     5
100
AcDbLine
 10
55.30837208140106
 20
51.99001759701832
 30
0.0
 11
147.60007084421
 21
51.99001759701832
 31
0.0
  0
LINE
  5
16A3
330
241
100
AcDbEntity
  8
A4 SHEET
 62
     5
100
AcDbLine
 10
55.30837208140106
 20
38.75796517014736
 30
0.0
 11
147.60007084421
 21
38.75796517014734
 31
0.0
  0
LINE
  5
16A4
330
241
100
AcDbEntity
  8
A4 SHEET
 62
     5
100
AcDbLine
 10
55.30837208140106
 20
37.25796517014735
 30
0.0
 11
147.60007084421
 21
37.25796517014734
 31
0.0
  0
LINE
  5
16A5
330
241
100
AcDbEntity
  8
A4 SHEET
 62
     5
100
AcDbLine
 10
55.30837208140106
 20
3.820207746060006
 30
0.0
 11
147.60007084421
 21
3.820207746060006
 31
0.0
  0
LINE
  5
16A6
330
241
100
AcDbEntity
  8
A4 SHEET
100
AcDbLine
 10
7.777105839157954
 20
283.6213344614823
 30
0.0
 11
197.6550712950588
 21
283.6213344614823
 31
0.0
  0
LINE
  5
16A7
330
241
100
AcDbEntity
  8
A4 SHEET
100
AcDbLine
 10
7.777105839157954
 20
53.24001759701832
 30
0.0
 11
197.6550712950588
 21
53.24001759701832
 31
0.0
  0
LINE
  5
16A8
330
241
100
AcDbEntity
  8
A4 SHEET
100
AcDbLine
 10
7.777105839157954
 20
2.570207746060005
 30
0.0
 11
197.6550712950588
 21
2.570207746060005
 31
0.0
  0
LINE
  5
16A9
330
241
100
AcDbEntity
  8
A4 SHEET
100
AcDbLine
 10
7.777105839157954
 20
2.570207746060005
 30
0.0
 11
7.777105839157954
 21
283.6213344614823
 31
0.0
  0
TEXT
  5
16AA
330
241
100
AcDbEntity
  8
A4 SHEET
 62
     1
100
AcDbText
 10
32.19316668439653
 20
12.54028119748846
 30
0.0
 40
2.0
  1
Delivery
  7
ROMANS
100
AcDbText
  0
TEXT
  5
16AB
330
241
100
AcDbEntity
  8
A4 SHEET
 62
     1
100
AcDbText
 10
32.19316668439653
 20
25.07004395954692
 30
0.0
 40
2.0
  1
Office Ref.
  7
ROMANS
100
AcDbText
  0
TEXT
  5
16AC
330
241
100
AcDbEntity
  8
A4 SHEET
 62
     1
100
AcDbText
 10
32.19316668439653
 20
37.87518612296761
 30
0.0
 40
2.0
  1
Project No.
  7
ROMANS
100
AcDbText
  0
TEXT
  5
16AD
330
241
100
AcDbEntity
  8
A4 SHEET
 62
     1
100
AcDbText
 10
32.19316668439653
 20
50.68032828638832
 30
0.0
 40
2.0
  1
Location
  7
ROMANS
100
AcDbText
  0
ATTDEF
  5
16AE
330
241
100
AcDbEntity
  8
A4 SHEET
100
AcDbText
 10
31.93067360090935
 20
6.831721821908998
 30
0.0
 40
3.0
  1

  7
ROMANS
100
AcDbAttributeDefinition
  3
DELIVERY DATE?
  2
DELIVERY
 70
     0
  0
LINE
  5
16AF
330
241
100
AcDbEntity
  8
A4 SHEET
100
AcDbLine
 10
7.777105839157954
 20
40.71025483495986
 30
0.0
 11
54.05837208140106
 21
40.71025483495986
 31
0.0
  0
LINE
  5
16B0
330
241
100
AcDbEntity
  8
A4 SHEET
100
AcDbLine
 10
7.777105839157954
 20
15.09997050811846
 30
0.0
 11
54.05837208140106
 21
15.09997050811846
 31
0.0
  0
LINE
  5
16B1
330
241
100
AcDbEntity
  8
A4 SHEET
100
AcDbLine
 10
7.777105839157954
 20
27.90511267153915
 30
0.0
 11
54.05837208140106
 21
27.90511267153915
 31
0.0
  0
ATTDEF
  5
16B2
330
241
100
AcDbEntity
  8
A4 SHEET
100
AcDbText
 10
31.93067360090935
 20
31.99588333299775
 30
0.0
 40
3.0
  1

  7
ROMANS
100
AcDbAttributeDefinition
  3
PROJECT No. ?
  2
PROJECT_NO
 70
     0
  0
LINE
  5
16B3
330
241
100
AcDbEntity
  8
A4 SHEET
100
AcDbLine
 10
31.41773896027949
 20
53.24001759701832
 30
0.0
 11
31.41773896027951
 21
2.570207746060005
 31
0.0
  0
ATTDEF
  5
16B4
330
241
100
AcDbEntity
  8
A4 SHEET
100
AcDbText
 10
8.290040479787815
 20
44.8504035457095
 30
0.0
 40
3.0
  1
CK
  7
ROMANS
100
AcDbAttributeDefinition
  3
DRAWN BY?
  2
DRAWN
 70
     0
  0
ATTDEF
  5
16B5
330
241
100
AcDbEntity
  8
A4 SHEET
100
AcDbText
 10
8.290040479787815
 20
31.99588333299775
 30
0.0
 40
3.0
  1

  7
ROMANS
100
AcDbAttributeDefinition
  3
CHECKED BY?
  2
CHECKED
 70
     0
  0
ATTDEF
  5
16B6
330
241
100
AcDbEntity
  8
A4 SHEET
100
AcDbText
 10
8.290040479787815
 20
19.2098972668673
 30
0.0
 40
3.0
  1
1:5
  7
ROMANS
100
AcDbAttributeDefinition
  3
SCALE?
  2
SCALE
 70
     0
  0
TEXT
  5
16B7
330
241
100
AcDbEntity
  8
A4 SHEET
 62
     1
100
AcDbText
 10
8.55253356327498
 20
12.54028119748846
 30
0.0
 40
2.0
  1
Date
  7
ROMANS
100
AcDbText
  0
ATTDEF
  5
16B8
330
241
100
AcDbEntity
  8
A4 SHEET
100
AcDbText
 10
8.290040479787815
 20
6.831721821908995
 30
0.0
 40
3.0
  1
04/01/00
  7
ROMANS
100
AcDbAttributeDefinition
  3
DATE DRAWN?
  2
DATE
 70
     0
  0
TEXT
  5
16B9
330
241
100
AcDbEntity
  8
A4 SHEET
 62
     1
100
AcDbText
 10
8.55253356327498
 20
25.07004395954692
 30
0.0
 40
2.0
  1
Scale
  7
ROMANS
100
AcDbText
  0
TEXT
  5
16BA
330
241
100
AcDbEntity
  8
A4 SHEET
 62
     1
100
AcDbText
 10
8.55253356327498
 20
37.87518612296761
 30
0.0
 40
2.0
  1
Checked
  7
ROMANS
100
AcDbText
  0
TEXT
  5
16BB
330
241
100
AcDbEntity
  8
A4 SHEET
 62
     1
100
AcDbText
 10
8.55253356327498
 20
50.68032828638832
 30
0.0
 40
2.0
  1
Drawn
  7
ROMANS
100
AcDbText
  0
LINE
  5
16BC
330
241
100
AcDbEntity
  8
A4 SHEET
100
AcDbLine
 10
54.05837208140106
 20
53.24001759701832
 30
0.0
 11
54.05837208140106
 21
2.570207746060005
 31
0.0
  0
LINE
  5
16BD
330
241
100
AcDbEntity
  8
A4 SHEET
 62
     5
100
AcDbLine
 10
55.05837208140106
 20
52.24001759701833
 30
0.0
 11
55.05837208140104
 21
38.50796517014735
 31
0.0
  0
LINE
  5
16BE
330
241
100
AcDbEntity
  8
A4 SHEET
 62
     5
100
AcDbLine
 10
55.30837208140106
 20
51.99001759701832
 30
0.0
 11
55.30837208140106
 21
38.75796517014736
 31
0.0
  0
ATTDEF
  5
16BF
330
241
100
AcDbEntity
  8
A4 SHEET
100
AcDbText
 10
55.92636162597325
 20
42.81743759049766
 30
0.0
 40
3.0
  1

  7
ROMANS
100
AcDbAttributeDefinition
  3
CLIENT ?
  2
CLIENT
 70
     0
  0
ATTDEF
  5
16C0
330
241
100
AcDbEntity
  8
A4 SHEET
100
AcDbText
 10
55.92636162597325
 20
28.03537398364563
 30
0.0
 40
3.0
  1

  7
ROMANS
100
AcDbAttributeDefinition
  3
TITLE LINE 1?
  2
TITLE_1
 70
     0
  0
TEXT
  5
16C1
330
241
100
AcDbEntity
  8
A4 SHEET
 62
     1
100
AcDbText
 10
55.99741658205537
 20
34.42192815674928
 30
0.0
 40
2.0
  1
PROJECT TITLE
  7
ROMANS
100
AcDbText
  0
ATTDEF
  5
16C2
330
241
100
AcDbEntity
  8
A4 SHEET
100
AcDbText
 10
55.92636162597325
 20
23.14725924241181
 30
0.0
 40
3.0
  1

  7
ROMANS
100
AcDbAttributeDefinition
  3
TITLE LINE 2?
  2
TITLE_2
 70
     0
  0
ATTDEF
  5
16C3
330
241
100
AcDbEntity
  8
A4 SHEET
100
AcDbText
 10
55.92636162597325
 20
18.16265549404074
 30
0.0
 40
3.0
  1

  7
ROMANS
100
AcDbAttributeDefinition
  3
TITLE LINE 3?
  2
TITLE_3
 70
     0
  0
ATTDEF
  5
16C4
330
241
100
AcDbEntity
  8
A4 SHEET
100
AcDbText
 10
55.92636162597325
 20
13.17805174566968
 30
0.0
 40
3.0
  1

  7
ROMANS
100
AcDbAttributeDefinition
  3
TITLE LINE 4
  2
TITLE_4
 70
     0
  0
LINE
  5
16C5
330
241
100
AcDbEntity
  8
A4 SHEET
 62
     5
100
AcDbLine
 10
55.05837208140104
 20
37.50796517014735
 30
0.0
 11
55.05837208140104
 21
3.570207746060006
 31
0.0
  0
LINE
  5
16C6
330
241
100
AcDbEntity
  8
A4 SHEET
 62
     5
100
AcDbLine
 10
55.30837208140106
 20
37.25796517014735
 30
0.0
 11
55.30837208140106
 21
3.820207746060006
 31
0.0
  0
TEXT
  5
16C7
330
241
100
AcDbEntity
  8
A4 SHEET
 62
     1
100
AcDbText
 10
55.99741658205538
 20
49.15398058362026
 30
0.0
 40
2.0
  1
CLIENT
  7
ROMANS
100
AcDbText
  0
LINE
  5
16C8
330
241
100
AcDbEntity
  8
A4 SHEET
100
AcDbLine
 10
197.6550712950588
 20
2.570207746060005
 30
0.0
 11
197.6550712950588
 21
283.6213344614823
 31
0.0
  0
MTEXT
  5
16C9
330
241
100
AcDbEntity
  8
A4 SHEET
 62
     1
100
AcDbMText
 10
173.2525710696344
 20
31.27262520063152
 30
0.0
 40
1.5
 41
35.1472
 71
     5
 72
     5
  1
Tel: 0114 275 5224\PFax: 0114 276 8543\PEmail: info@ancon.co.uk
  7
ROMANS
 73
     1
 44
1.0
  0
LWPOLYLINE
  5
16CA
330
241
100
AcDbEntity
  8
0
  6
Continuous
 62
     9
100
AcDbPolyline
 90
       58
 70
     1
 43
0.0
 10
169.6998089715318
 20
36.89733676267739
 10
169.6969866277821
 20
36.77049582517746
 10
169.6889752215319
 20
36.66579066892743
 10
169.676394909032
 20
36.58386676267745
 10
169.6423242840318
 20
36.48294582517731
 10
169.5932686590319
 20
36.38984645017735
 10
169.529898815282
 20
36.3025942626775
 10
169.3510913152818
 20
36.14636551267734
 10
169.1423264715322
 20
36.05262066892743
 10
168.9029588152822
 20
36.02135973142749
 10
168.6744249090317
 20
36.04957051267749
 10
168.469355690282
 20
36.13378520017745
 10
168.2876878777818
 20
36.27334566892749
 10
168.1481653777819
 20
36.45496285642734
 10
168.063976002782
 20
36.66003207517747
 10
168.0357652215319
 20
36.88856598142746
 10
168.0640772527822
 20
37.12195988767752
 10
168.149038659032
 20
37.32995270017743
 10
168.2906241277819
 20
37.51255707517756
 10
168.4732411590316
 20
37.65418051267754
 10
168.6812592840316
 20
37.73915457517752
 10
168.9146785027818
 20
37.76747926267734
 10
169.0562766277821
 20
37.75683535642748
 10
169.1881167840319
 20
37.72535926267747
 10
169.3101610027819
 20
37.67369645017744
 10
169.423447096532
 20
37.60240379392746
 10
169.5289116277819
 20
37.51159520017735
 10
169.6265672527816
 20
37.40124535642742
 10
169.4918288152821
 20
37.27234145017756
 10
169.4146763152818
 20
37.36631410642749
 10
169.329702252782
 20
37.44401082517736
 10
169.2369066277818
 20
37.50672254392743
 10
169.1363400652819
 20
37.55348738767735
 10
169.027951940282
 20
37.58202723142746
 10
168.9117295965319
 20
37.59168395017731
 10
168.7289100652819
 20
37.56824457517736
 10
168.5662645965319
 20
37.49793910642729
 10
168.4224769402819
 20
37.38076754392746
 10
168.310165377782
 20
37.23230973142742
 10
168.2427835027818
 20
37.06824676267753
 10
168.2203186590319
 20
36.88856598142746
 10
168.2419228777821
 20
36.71072035642754
 10
168.3071531902818
 20
36.55175785642747
 10
168.4166424090317
 20
36.41100770017743
 10
168.4861885027816
 20
36.35056145017752
 10
168.5609489715319
 20
36.29859488767731
 10
168.6422147527816
 20
36.25575348142743
 10
168.725214440282
 20
36.22232832517754
 10
168.8101631902819
 20
36.20323004392755
 10
168.8970863152816
 20
36.19715504392731
 10
169.0446708465317
 20
36.21386129392746
 10
169.1831175652818
 20
36.26441035642752
 10
169.3130972527816
 20
36.3494730126775
 10
169.4164102215316
 20
36.45777254392746
 10
169.4793370965319
 20
36.58299348142747
 10
169.5005995965316
 20
36.72447770017746
 10
168.9966910027816
 20
36.72447770017746
 10
168.9966910027816
 20
36.89733676267739
  0
LINE
  5
16CB
330
241
100
AcDbEntity
  8
A4 SHEET
100
AcDbLine
 10
148.85007084421
 20
15.09997050811846
 30
0.0
 11
197.6550712950588
 21
15.09997050811846
 31
0.0
  0
LWPOLYLINE
  5
16CC
330
241
100
AcDbEntity
  8
0
  6
Continuous
 62
     9
100
AcDbPolyline
 90
       43
 70
     1
 43
0.0
 10
170.5874930340318
 20
44.87779848142732
 10
169.8638972527819
 20
40.17564723142739
 10
167.162673815282
 20
40.17564723142739
 10
167.7310660027816
 20
43.88173895017749
 10
167.755366002782
 20
44.03808160642751
 10
167.7809822527821
 20
44.20290395017739
 10
167.8072566277819
 20
44.3768261376774
 10
167.8295949090318
 20
44.54664770017743
 10
167.8434788152818
 20
44.70409145017753
 10
167.8482628777819
 20
44.84849926267743
 10
167.8266586590318
 20
45.14027645017747
 10
167.7614283465318
 20
45.38192223142742
 10
167.6519391277819
 20
45.5721456689274
 10
167.4488189715319
 20
45.74715629392735
 10
167.1734442840318
 20
45.85121598142747
 10
166.8257897527819
 20
45.88561566892741
 10
166.3524713152817
 20
45.82789051267736
 10
165.9533817840319
 20
45.65428473142731
 10
165.6304702215319
 20
45.3641655126774
 10
165.4158581902819
 20
45.03104035642735
 10
165.2533139715318
 20
44.61719363767747
 10
165.1441538152818
 20
44.12195457517747
 10
164.534768034032
 20
40.17564723142739
 10
161.8365441277819
 20
40.17564723142739
 10
163.008386315282
 20
47.78405316892739
 10
165.7066608465318
 20
47.78405316892739
 10
165.5572285027818
 20
46.8055352001774
 10
165.5865277215317
 20
46.8055352001774
 10
165.966291159032
 20
47.20961129392735
 10
166.3668994402818
 20
47.53038395017731
 10
166.7877197527818
 20
47.76651160642741
 10
167.2134000652819
 20
47.91710832517742
 10
167.687237409032
 20
48.00651207517736
 10
168.2086116277816
 20
48.03602645017742
 10
168.795279440282
 20
47.99593145017745
 10
169.3028456902816
 20
47.87562113767751
 10
169.7313103777819
 20
47.67512082517734
 10
170.0806861590319
 20
47.39439254392737
 10
170.3980542840318
 20
46.93922316892752
 10
170.5884928777817
 20
46.37010957517746
 10
170.6519639715317
 20
45.68640629392739
 10
170.6443702215316
 20
45.42664941892744
 10
170.6224495965319
 20
45.15712191892736
  0
LWPOLYLINE
  5
16CD
330
241
100
AcDbEntity
  8
0
  6
Continuous
 62
     9
100
AcDbPolyline
 90
        4
 70
     1
 43
0.0
 10
194.3501972527818
 20
38.83094598142749
 10
150.0943285027818
 20
38.83094598142749
 10
150.0943285027818
 20
39.1356452001775
 10
194.3501972527818
 20
39.1356452001775
  0
HATCH
  5
16CE
330
241
100
AcDbEntity
  8
0
  6
Continuous
 62
     9
100
AcDbHatch
 10
0.0
 20
0.0
 30
0.0
210
0.0
220
0.0
230
1.0
  2
ANSI31
 70
     0
 71
     0
 91
        7
 92
        7
 72
     0
 73
     1
 93
        8
 10
150.0503860027819
 20
40.17564723142739
 10
153.1382578777817
 20
40.1756472314274
 10
154.2105460027819
 20
42.11803988767742
 10
158.2125155340318
 20
42.11803988767742
 10
158.6431824090319
 20
40.17564723142739
 10
161.745697565282
 20
40.17564723142739
 10
159.252517565282
 20
51.36412660642744
 10
156.0767480340319
 20
51.36412660642744
 97
        0
 92
       22
 72
     0
 73
     1
 93
        4
 10
157.135817208676
 20
47.91305330718436
 10
157.165116427426
 20
47.91305330718436
 10
157.806699708676
 20
44.35057205718428
 10
155.3838758024263
 20
44.35057205718428
 97
        0
 92
        7
 72
     0
 73
     1
 93
       43
 10
161.8365441277819
 20
40.17564723142739
 10
164.534768034032
 20
40.17564723142739
 10
165.1441538152818
 20
44.12195457517761
 10
165.2533139715318
 20
44.61719363767746
 10
165.4158581902819
 20
45.0310403564273
 10
165.6304702215321
 20
45.3641655126774
 10
165.9533817840319
 20
45.6542847314273
 10
166.3524713152817
 20
45.82789051267736
 10
166.825789752782
 20
45.88561566892741
 10
167.1734442840318
 20
45.85121598142746
 10
167.4488189715318
 20
45.74715629392736
 10
167.6519391277819
 20
45.5721456689274
 10
167.7614283465318
 20
45.38192223142738
 10
167.8266586590318
 20
45.14027645017759
 10
167.8482628777819
 20
44.84849926267765
 10
167.8434788152818
 20
44.7040914501774
 10
167.8295949090319
 20
44.54664770017724
 10
167.8072566277818
 20
44.37682613767711
 10
167.7809822527825
 20
44.20290395018137
 10
167.755366002782
 20
44.03808160642751
 10
167.731066002782
 20
43.88173895017536
 10
167.162673815282
 20
40.17564723142739
 10
169.8638972527819
 20
40.17564723142739
 10
170.587493034032
 20
44.87779848142767
 10
170.6224495965319
 20
45.15712191892779
 10
170.6443702215316
 20
45.42664941892718
 10
170.6519639715317
 20
45.68640629392714
 10
170.5884928777817
 20
46.37010957517765
 10
170.3980542840318
 20
46.93922316892755
 10
170.0806861590318
 20
47.39439254392742
 10
169.7313103777819
 20
47.67512082517728
 10
169.3028456902816
 20
47.87562113767747
 10
168.795279440282
 20
47.99593145017745
 10
168.2086116277816
 20
48.03602645017742
 10
167.687237409032
 20
48.00651207517735
 10
167.2134000652819
 20
47.91710832517742
 10
166.7877197527818
 20
47.7665116064274
 10
166.3668994402818
 20
47.53038395017731
 10
165.9662911590321
 20
47.20961129392735
 10
165.5865277215317
 20
46.8055352001774
 10
165.5572285027818
 20
46.8055352001774
 10
165.7066608465318
 20
47.78405316892739
 10
163.008386315282
 20
47.78405316892739
 97
        0
 92
        7
 72
     0
 73
     1
 93
       71
 10
172.2584470965319
 20
46.5842280126776
 10
171.9582028777819
 20
46.26081020017744
 10
171.693611315282
 20
45.91734488767735
 10
171.4646091277819
 20
45.55383207517774
 10
171.2711710027819
 20
45.17027176267734
 10
171.1132716277816
 20
44.76665129392692
 10
170.9908730340316
 20
44.34299598142732
 10
170.9039499090319
 20
43.89928051267721
 10
170.8767010027819
 20
43.69919785642745
 10
170.859868190282
 20
43.49195176267746
 10
170.8541222527816
 20
43.27822566892736
 10
170.8826494402821
 20
42.80193301267742
 10
170.968155065282
 20
42.35459785642712
 10
171.1104619402819
 20
41.93641004392746
 10
171.3094055340317
 20
41.54752145017766
 10
171.564833971532
 20
41.18809660642759
 10
171.8765827215319
 20
40.85828738767744
 10
172.228173346532
 20
40.57216754392734
 10
172.6092150652819
 20
40.33787504392743
 10
173.0198850652824
 20
40.15552379392747
 10
173.4603478777818
 20
40.02516441892747
 10
173.930742721532
 20
39.9468855126775
 10
174.4312467840318
 20
39.92077566892737
 10
174.7643719402821
 20
39.93250801267736
 10
175.0961935027819
 20
39.96766707517756
 10
175.4273569402818
 20
40.02626551267736
 10
175.7555967840318
 20
40.10926520017739
 10
176.0786349090318
 20
40.21765332517746
 10
176.397104127782
 20
40.35144254392745
 10
176.7486441277819
 20
42.63952801267731
 10
176.5356520965318
 20
42.48728598142739
 10
176.306371471532
 20
42.35914145017733
 10
176.0601694402819
 20
42.25576520017739
 10
175.8061585027819
 20
42.17968848142739
 10
175.5593110027816
 20
42.13355645017754
 10
175.3189814715318
 20
42.11803988767742
 10
174.8561930340319
 20
42.16566535642733
 10
174.4585210027818
 20
42.30771910642743
 10
174.1266108465316
 20
42.54287223142735
 10
173.8775611590319
 20
42.85632957517734
 10
173.7281541277819
 20
43.22839801267742
 10
173.6783517840318
 20
43.65906488767715
 10
173.6812753777819
 20
43.7656178564271
 10
173.6900588152818
 20
43.87476535642745
 10
173.7047147527816
 20
43.98717816892752
 10
173.8402252215316
 20
44.48403723142745
 10
174.0877308465319
 20
44.92490504392747
 10
174.4459027215319
 20
45.30845270017759
 10
174.8766961590319
 20
45.60633020017745
 10
175.3432688152819
 20
45.78503645017742
 10
175.846316784032
 20
45.84460941892735
 10
176.0884941277819
 20
45.82702988767739
 10
176.3287224090321
 20
45.77430395017739
 10
176.5670142840319
 20
45.6864062939273
 10
176.7640594402821
 20
45.5838527001774
 10
176.9617500652819
 20
45.45787238767736
 10
177.1588205340318
 20
45.30845270017759
 10
177.5103605340318
 20
47.59365254392753
 10
177.2553877215319
 20
47.73035270017742
 10
176.9880244402819
 20
47.84166441892749
 10
176.7076378777819
 20
47.9276003564273
 10
176.4168352215318
 20
47.98826176267739
 10
176.1136674090316
 20
48.02419285642732
 10
175.799425377782
 20
48.03602645017742
 10
175.2884166277818
 20
48.01253645017752
 10
174.7950506902818
 20
47.94210441892739
 10
174.3193402215319
 20
47.82476832517748
 10
173.8613738152818
 20
47.66060410642731
 10
173.4211767840319
 20
47.44964973142744
 10
172.9988250652823
 20
47.19196848142754
 10
172.5943566277819
 20
46.88759832517725
 97
        0
 92
        7
 72
     0
 73
     1
 93
       58
 10
180.1207374090319
 20
47.5555445751776
 10
179.5845553777821
 20
47.2880800439274
 10
179.0964417840318
 20
46.96925645017727
 10
178.6561181902818
 20
46.59933957517757
 10
178.2633061590316
 20
46.17859520017717
 10
177.9708075652819
 20
45.78520098142761
 10
177.7261116277821
 20
45.36788645017732
 10
177.5292310027818
 20
44.92667691892752
 10
177.380165690282
 20
44.46154707517731
 10
177.278903034032
 20
43.97252223142781
 10
177.2516920965316
 20
43.73924223142704
 10
177.2348845965319
 20
43.51441660642771
 10
177.2291260027818
 20
43.29870348142754
 10
177.2616272527821
 20
42.79088410642749
 10
177.359232252782
 20
42.31921098142762
 10
177.5221055340321
 20
41.88365879392756
 10
177.7503989715318
 20
41.48424020017741
 10
178.0442770965319
 20
41.1209678564274
 10
178.4039170965318
 20
40.79381645017758
 10
178.7891606902816
 20
40.52671895017737
 10
179.2094747527818
 20
40.3083733251774
 10
179.6647833465319
 20
40.13867832517749
 10
180.1550105340321
 20
40.01757066892746
 10
180.6800550652819
 20
39.94496176267746
 10
181.2398663152816
 20
39.92077566892738
 10
181.7331563152819
 20
39.93978535642746
 10
182.2147772527819
 20
39.99690301267737
 10
182.6850075652818
 20
40.09228051267746
 10
183.144138346532
 20
40.22603176267731
 10
183.5924353777816
 20
40.3983339501774
 10
184.1362870965321
 20
40.6674437939274
 10
184.629880846532
 20
40.9868116064274
 10
185.0734950652819
 20
41.35618426267742
 10
185.4674081902821
 20
41.77527066892738
 10
185.7599194402821
 20
42.16690566892732
 10
186.0046153777819
 20
42.5824609814273
 10
186.201496002782
 20
43.02191129392723
 10
186.3505486590319
 20
43.48526926267727
 10
186.4517986590319
 20
43.97252223142717
 10
186.479034909032
 20
44.2060427001781
 10
186.4958424090319
 20
44.43238707517774
 10
186.5015756902818
 20
44.65222613767767
 10
186.4690997527818
 20
45.16147566892738
 10
186.3715833465319
 20
45.63443973142755
 10
186.2089758465318
 20
46.07092848142753
 10
185.9811886590319
 20
46.47080270017727
 10
185.6881331902823
 20
46.8338978564273
 10
185.3297335027821
 20
47.16006207517735
 10
184.9444772527818
 20
47.42838723142756
 10
184.5240619402816
 20
47.64756816892734
 10
184.068500221532
 20
47.81776941892753
 10
183.5777667840318
 20
47.93913020017746
 10
183.0518869402818
 20
48.01182770017749
 10
182.4908480340319
 20
48.0360264501774
 10
181.9954444402818
 20
48.01671301267738
 10
181.5110138152818
 20
47.95887395017738
 10
181.0372777215318
 20
47.86262316892731
 10
180.5739450652819
 20
47.72813785642732
 97
        0
 92
       22
 72
     0
 73
     1
 93
       32
 10
181.1675991277819
 20
45.46950348142742
 10
181.6216927215316
 20
45.63867957517738
 10
182.1304866277818
 20
45.69521504392747
 10
182.5708102215319
 20
45.64931082517754
 10
182.9421192840317
 20
45.51159816892735
 10
183.2437936590316
 20
45.2821023876774
 10
183.4537355340319
 20
44.99803285642747
 10
183.5796905340319
 20
44.66188285642718
 10
183.6218942629779
 20
44.2723442190053
 10
183.6208233465318
 20
44.2146236376748
 10
183.6187983465316
 20
44.15420270017695
 10
183.6148749090319
 20
44.08561848142693
 10
183.6090024090319
 20
44.0254886376771
 10
183.6012061590319
 20
43.97252223142728
 10
183.4783645965319
 20
43.50355754392744
 10
183.2630817840319
 20
43.0977475439275
 10
182.9566866277819
 20
42.75378863767732
 10
182.5620394402816
 20
42.48242598142748
 10
182.1101100652816
 20
42.31910973142744
 10
181.6002150652818
 20
42.26452332517735
 10
181.1599041277819
 20
42.30847848142743
 10
180.7885824090321
 20
42.44031863767742
 10
180.4869206902816
 20
42.66005645017734
 10
180.274143815282
 20
42.93651957517742
 10
180.1459992840319
 20
43.2683158251774
 10
180.1031452215321
 20
43.65611598142744
 10
180.1060688152819
 20
43.75964410642754
 10
180.1148522527818
 20
43.86512129392696
 10
180.1295081902821
 20
43.97252223142714
 10
180.2495147527819
 20
44.43357676267727
 10
180.4626333465319
 20
44.83864004392747
 10
180.7681931902821
 20
45.18837020017737
 97
        0
 92
        7
 72
     0
 73
     1
 93
       43
 10
190.031872096532
 20
46.80553520017742
 10
190.1812538152819
 20
47.78405316892739
 10
187.4830299090318
 20
47.78405316892739
 10
186.3111370965318
 20
40.17564723142739
 10
189.0094116277818
 20
40.17564723142739
 10
189.618746784032
 20
44.12195457517789
 10
189.7283372527818
 20
44.61719363767749
 10
189.8880717840316
 20
45.03104035642732
 10
190.099241315282
 20
45.3641655126774
 10
190.4235703777819
 20
45.65428473142731
 10
190.8227611590319
 20
45.82789051267735
 10
191.2974970965319
 20
45.88561566892741
 10
191.6450377215316
 20
45.85121598142747
 10
191.9196656902818
 20
45.74715629392736
 10
192.1206975652819
 20
45.5721456689274
 10
192.2309588152819
 20
45.3819222314274
 10
192.2976066277815
 20
45.14027645017742
 10
192.3199702215316
 20
44.84849926267727
 10
192.3131231902816
 20
44.67283051267725
 10
192.2926074090316
 20
44.46266082517706
 10
192.2584228777821
 20
44.21862301267286
 10
192.2416027215318
 20
44.10133754392751
 10
192.2254280340314
 20
43.98925379392461
 10
192.2085952215304
 20
43.88173895015937
 10
191.6373300652819
 20
40.17564723142739
 10
194.3355413152817
 20
40.17564723142739
 10
195.0621366277818
 20
44.87779848142865
 10
195.0970678777816
 20
45.1571219189264
 10
195.1189758465319
 20
45.42664941892743
 10
195.1265569402815
 20
45.6864062939274
 10
195.0630985027819
 20
46.37010957517746
 10
194.872672565282
 20
46.93922316892748
 10
194.555291784032
 20
47.39439254392731
 10
194.2059286590319
 20
47.67512082517732
 10
193.7774639715316
 20
47.87562113767753
 10
193.2698850652821
 20
47.99593145017744
 10
192.6832045965319
 20
48.0360264501774
 10
192.1618430340318
 20
48.00651207517735
 10
191.6879930340321
 20
47.91710832517742
 10
191.2623253777819
 20
47.7665116064274
 10
190.8415303777821
 20
47.53038395017735
 10
190.4409347527819
 20
47.20961129392735
 10
190.0611713152818
 20
46.8055352001774
 97
        0
 75
     0
 76
     1
 52
0.0
 41
1.265625
 77
     0
 78
     1
 53
45.0
 43
186.3870239715318
 44
8.237802856427471
 45
-0.111866502492403
 46
0.111866502492403
 79
     0
 47
0.0040377343017356
 98
        7
 10
156.1175227947763
 20
48.91393107470765
 10
156.1175227947763
 20
48.91393107470765
 10
164.0934574300376
 20
45.9499816986809
 10
173.296459028919
 20
45.9499816986809
 10
180.8633715105115
 20
46.15439197952124
 10
180.8633715105115
 20
46.15439197952124
 10
188.7370505445293
 20
46.15439197952124
  0
LINE
  5
16CF
330
241
100
AcDbEntity
  8
A4 SHEET
100
AcDbLine
 10
148.85007084421
 20
53.24001759701832
 30
0.0
 11
148.85007084421
 21
2.570207746060005
 31
0.0
  0
LINE
  5
16D0
330
241
100
AcDbEntity
  8
A4 SHEET
 62
     5
100
AcDbLine
 10
147.85007084421
 20
52.24001759701831
 30
0.0
 11
147.85007084421
 21
38.50796517014734
 31
0.0
  0
LINE
  5
16D1
330
241
100
AcDbEntity
  8
A4 SHEET
 62
     5
100
AcDbLine
 10
147.60007084421
 20
51.99001759701832
 30
0.0
 11
147.60007084421
 21
38.75796517014734
 31
0.0
  0
LWPOLYLINE
  5
16D2
330
241
100
AcDbEntity
  8
0
  6
Continuous
 62
     9
100
AcDbPolyline
 90
        8
 70
     1
 43
0.0
 10
161.745697565282
 20
40.17564723142739
 10
158.6431824090319
 20
40.17564723142739
 10
158.2125155340318
 20
42.1180398876774
 10
154.2105460027819
 20
42.1180398876774
 10
153.1382578777817
 20
40.17564723142739
 10
150.0503860027819
 20
40.17564723142739
 10
156.0767480340319
 20
51.36412660642744
 10
159.252517565282
 20
51.36412660642744
  0
TEXT
  5
16D3
330
241
100
AcDbEntity
  8
A4 SHEET
 62
     1
100
AcDbText
 10
149.625498568327
 20
12.54028119748846
 30
0.0
 40
2.0
  1
DWG No.
  7
ROMANS
100
AcDbText
  0
ATTDEF
  5
16D4
330
241
100
AcDbEntity
  8
A4 SHEET
100
AcDbText
 10
149.8320303694279
 20
6.270319131677898
 30
0.0
 40
3.0
  1

  7
ROMANS
100
AcDbAttributeDefinition
  3
DRAWING No. ?
  2
DWG_NO
 70
     0
  0
LINE
  5
16D5
330
241
100
AcDbEntity
  8
A4 SHEET
 62
     5
100
AcDbLine
 10
147.85007084421
 20
37.50796517014734
 30
0.0
 11
147.85007084421
 21
3.570207746060006
 31
0.0
  0
LINE
  5
16D6
330
241
100
AcDbEntity
  8
A4 SHEET
 62
     5
100
AcDbLine
 10
147.60007084421
 20
37.25796517014734
 30
0.0
 11
147.60007084421
 21
3.820207746060006
 31
0.0
  0
LWPOLYLINE
  5
16D7
330
241
100
AcDbEntity
  8
0
  6
Continuous
 62
     9
100
AcDbPolyline
 90
       15
 70
     1
 43
0.0
 10
150.9058725652818
 20
36.53115348142744
 10
150.889267565282
 20
36.63670660642749
 10
150.8394525652819
 20
36.71949113767748
 10
150.7564402215319
 20
36.78013988767735
 10
150.6733266277819
 20
36.80945176267743
 10
150.570026315282
 20
36.82704395017749
 10
150.445919127782
 20
36.83290379392747
 10
150.2818308465318
 20
36.83290379392747
 10
150.2818308465318
 20
36.22351801267753
 10
150.4722694402818
 20
36.22351801267753
 10
150.590656002782
 20
36.22947910642746
 10
150.6888431902817
 20
36.24781801267745
 10
150.7681472527815
 20
36.27916754392743
 10
150.8442239715319
 20
36.34060098142747
 10
150.8903560027819
 20
36.42480301267734
  0
LWPOLYLINE
  5
16D8
330
241
100
AcDbEntity
  8
0
  6
Continuous
 62
     9
100
AcDbPolyline
 90
       24
 70
     1
 43
0.0
 10
151.0904386590319
 20
36.51938316892742
 10
151.0709100652821
 20
36.37195051267745
 10
151.0123116277819
 20
36.2518300439274
 10
150.9146433465319
 20
36.15903441892736
 10
150.798648815282
 20
36.09841098142743
 10
150.6566203777822
 20
36.06249254392746
 10
150.4898616277818
 20
36.05065895017737
 10
150.0943285027818
 20
36.05065895017737
 10
150.0943285027818
 20
37.73818004392746
 10
150.372664752782
 20
37.73818004392746
 10
150.5298933465317
 20
37.72667551267737
 10
150.6617208465316
 20
37.69302254392745
 10
150.7681472527815
 20
37.63857535642752
 10
150.8609302215319
 20
37.54774145017746
 10
150.9166050652817
 20
37.42760832517739
 10
150.9351717840319
 20
37.27821395017739
 10
150.9173644402818
 20
37.14637379392739
 10
150.8631070965319
 20
37.03796035642737
 10
150.7710961590317
 20
36.95298629392749
 10
150.8650688152819
 20
36.91783988767743
 10
150.9427655340319
 20
36.86511395017741
 10
151.0054772527819
 20
36.79478316892753
 10
151.0522420965318
 20
36.71168223142741
 10
151.080781940282
 20
36.62010160642758
  0
LWPOLYLINE
  5
16D9
330
241
100
AcDbEntity
  8
0
  6
Continuous
 62
     9
100
AcDbPolyline
 90
       15
 70
     1
 43
0.0
 10
150.7505677215318
 20
37.27821395017739
 10
150.739822565282
 20
37.38172941892742
 10
150.7076124090318
 20
37.45789473142746
 10
150.6538992840321
 20
37.50672254392743
 10
150.5777466277816
 20
37.53807207517742
 10
150.4781419402819
 20
37.55641098142739
 10
150.3550725652817
 20
37.56238473142742
 10
150.2818308465318
 20
37.56238473142742
 10
150.2818308465318
 20
36.99399254392749
 10
150.3550725652817
 20
36.99399254392749
 10
150.4713961590321
 20
36.99887785642747
 10
150.5629894402819
 20
37.01353379392752
 10
150.6304725652818
 20
37.0379477001774
 10
150.6967533465318
 20
37.09372379392748
 10
150.7370002215321
 20
37.17361004392743
  0
LINE
  5
16DA
330
241
100
AcDbEntity
  8
A4 SHEET
 62
     1
100
AcDbLine
 10
162.865541122966
 20
25.98182286073731
 30
0.0
 11
162.8655411229663
 21
24.66548917624901
 31
0.0
  0
LINE
  5
16DB
330
241
100
AcDbEntity
  8
A4 SHEET
 62
     1
100
AcDbLine
 10
162.5592736540984
 20
24.66411566208853
 30
0.0
 11
162.5592736540984
 21
25.98171898295149
 31
0.0
  0
LINE
  5
16DC
330
241
100
AcDbEntity
  8
A4 SHEET
 62
     1
100
AcDbLine
 10
162.4203589605766
 20
25.98163135608876
 30
0.0
 11
162.4203589605766
 21
24.66411566208853
 31
0.0
  0
ARC
  5
16DD
330
241
100
AcDbEntity
  8
A4 SHEET
 62
     1
100
AcDbCircle
 10
161.8862340881342
 20
24.89155707689974
 30
0.0
 40
0.2209969777818821
100
AcDbArc
 50
268.5718926548889
 51
357.325016657011
  0
ARC
  5
16DE
330
241
100
AcDbEntity
  8
A4 SHEET
 62
     1
100
AcDbCircle
 10
161.8711075200941
 20
24.93449928680723
 30
0.0
 40
0.2638705424702903
100
AcDbArc
 50
180.0
 51
270.0000000000009
  0
LINE
  5
16DF
330
241
100
AcDbEntity
  8
A4 SHEET
 62
     1
100
AcDbLine
 10
160.5327411229668
 20
25.98071555065188
 30
0.0
 11
160.5327411229668
 21
24.66395778141719
 31
0.0
  0
LINE
  5
16E0
330
241
100
AcDbEntity
  8
A4 SHEET
 62
     1
100
AcDbLine
 10
160.9113076242473
 20
25.98083007062752
 30
0.0
 11
160.9113107450915
 21
24.66411566208853
 31
0.0
  0
ARC
  5
16E1
330
241
100
AcDbEntity
  8
A4 SHEET
 62
     1
100
AcDbCircle
 10
161.1117824346255
 20
24.82263144606569
 30
0.0
 40
0.0870772790151958
100
AcDbArc
 50
180.0
 51
295.3405620328691
  0
ARC
  5
16E2
330
241
100
AcDbEntity
  8
A4 SHEET
 62
     1
100
AcDbCircle
 10
161.0745135513535
 20
24.90133013004049
 30
0.0
 40
0.1741545580303916
100
AcDbArc
 50
295.3405620328688
 51
0.0
  0
ARC
  5
16E3
330
241
100
AcDbEntity
  8
A4 SHEET
 62
     1
100
AcDbCircle
 10
161.7013977315608
 20
21.22721197363563
 30
0.0
 40
3.630011018367772
100
AcDbArc
 50
108.780469607373
 51
71.29475581501342
  0
INSERT
  5
16E4
330
241
100
AcDbEntity
  8
A4 SHEET
 62
     1
100
AcDbBlockReference
  2
*X2
 10
-90.26050780264471
 20
-31.36995688275197
 30
0.0
 41
0.675
 42
0.675
 43
0.675
1001
ACAD
1000
HATCH
1002
{
1070
    16
1000
ANSI31
1040
0.06
1040
0.0
1002
}
  0
ARC
  5
16E5
330
241
100
AcDbEntity
  8
A4 SHEET
 62
     1
100
AcDbCircle
 10
161.1130693630429
 20
24.92798620456159
 30
0.0
 40
0.2638705424702903
100
AcDbArc
 50
270.0
 51
0.0
  0
INSERT
  5
16E6
330
241
100
AcDbEntity
  8
A4 SHEET
 62
     1
100
AcDbBlockReference
  2
*X0
 10
-3511.076471693637
 20
-18601.10530803661
 30
0.0
 41
0.4860000000000002
 42
0.4860000000000002
 43
0.4860000000000002
  0
ARC
  5
16E7
330
241
100
AcDbEntity
  8
A4 SHEET
 62
     1
100
AcDbCircle
 10
161.7013977315608
 20
21.22721197363563
 30
0.0
 40
4.895054091578684
100
AcDbArc
 50
103.8123234335968
 51
76.24206974303134
  0
ARC
  5
16E8
330
241
100
AcDbEntity
  8
A4 SHEET
 62
     1
100
AcDbCircle
 10
160.7727155468503
 20
22.25169240520659
 30
0.0
 40
0.9474475545165791
100
AcDbArc
 50
4.643322781834799
 51
182.973792569371
  0
LINE
  5
16E9
330
241
100
AcDbEntity
  8
A4 SHEET
 62
     1
100
AcDbLine
 10
159.9155145993804
 20
22.03789450639697
 30
0.0
 11
161.7186215254158
 21
18.79020019042187
 31
0.0
  0
LINE
  5
16EA
330
241
100
AcDbEntity
  8
A4 SHEET
 62
     1
100
AcDbLine
 10
159.8265438545204
 20
22.2025396108533
 30
0.0
 11
163.7724427211824
 21
22.2025396108533
 31
0.0
  0
LINE
  5
16EB
330
241
100
AcDbEntity
  8
A4 SHEET
 62
     1
100
AcDbLine
 10
159.9155145993804
 20
22.03789450639697
 30
0.0
 11
163.6762804736825
 21
22.03789450639697
 31
0.0
  0
INSERT
  5
16EC
330
241
100
AcDbEntity
  8
A4 SHEET
 62
     1
100
AcDbBlockReference
  2
*X1
 10
-3511.076471693637
 20
-18601.10530803661
 30
0.0
 41
0.4860000000000002
 42
0.4860000000000002
 43
0.4860000000000002
  0
CIRCLE
  5
16ED
330
241
100
AcDbEntity
  8
A4 SHEET
 62
     1
100
AcDbCircle
 10
161.7099601984508
 20
21.28516543750313
 30
0.0
 40
2.773502486435614
  0
LINE
  5
16EE
330
241
100
AcDbEntity
  8
A4 SHEET
 62
     1
100
AcDbLine
 10
161.7186215254158
 20
18.79020019042187
 30
0.0
 11
163.6762804736825
 21
22.03789450639697
 31
0.0
  0
LINE
  5
16EF
330
241
100
AcDbEntity
  8
A4 SHEET
 62
     1
100
AcDbLine
 10
163.5415337275233
 20
19.20246179803282
 30
0.0
 11
163.7926638379215
 21
19.45359190843194
 31
0.0
  0
LINE
  5
16F0
330
241
100
AcDbEntity
  8
A4 SHEET
 62
     1
100
AcDbLine
 10
163.5415337275233
 20
19.20246179803282
 30
0.0
 11
163.7926638379215
 21
19.45359190843194
 31
0.0
  0
LINE
  5
16F1
330
241
100
AcDbEntity
  8
A4 SHEET
 62
     1
100
AcDbLine
 10
162.4203589605766
 20
24.66411566208853
 30
0.0
 11
162.5592736540984
 21
24.66411566208853
 31
0.0
  0
ARC
  5
16F2
330
241
100
AcDbEntity
  8
A4 SHEET
 62
     1
100
AcDbCircle
 10
162.7388486880107
 20
22.16911606410376
 30
0.0
 40
1.034134304084787
100
AcDbArc
 50
1.852140212144534
 51
170.0842572743103
  0
LINE
  5
16F3
330
241
100
AcDbEntity
  8
A4 SHEET
 62
     1
100
AcDbLine
 10
161.8711075200941
 20
24.67062874433417
 30
0.0
 11
161.8807262700778
 21
24.67062874433417
 31
0.0
  0
LINE
  5
16F4
330
241
100
AcDbEntity
  8
A4 SHEET
 62
     1
100
AcDbLine
 10
160.9113107450915
 20
24.66411566208853
 30
0.0
 11
161.1130693630429
 21
24.66411566208853
 31
0.0
  0
LWPOLYLINE
  5
16F5
330
241
100
AcDbEntity
  8
0
  6
Continuous
 62
     9
100
AcDbPolyline
 90
       21
 70
     1
 43
0.0
 10
161.019165534032
 20
36.89150223142735
 10
160.9946377215317
 20
37.08472520017739
 10
160.9206366277819
 20
37.25387598142743
 10
160.7964788152819
 20
37.39829645017754
 10
160.7243255340318
 20
37.45593301267748
 10
160.6489195965318
 20
37.49988816892741
 10
160.5709191277815
 20
37.5301492626775
 10
160.483768190282
 20
37.54762754392749
 10
160.3855556902817
 20
37.55858785642742
 10
160.2749906902818
 20
37.56238473142742
 10
160.1402522527821
 20
37.56238473142742
 10
160.1402522527821
 20
36.22351801267753
 10
160.2749906902818
 20
36.22351801267753
 10
160.390453659032
 20
36.22730223142745
 10
160.4915897527819
 20
36.23826254392735
 10
160.579689909032
 20
36.25575348142743
 10
160.6579308465319
 20
36.28710301267743
 10
160.7348555340319
 20
36.33474113767739
 10
160.8111347527819
 20
36.39930066892748
 10
160.9275595965318
 20
36.54188598142745
 10
160.9964728777818
 20
36.70593629392753
  0
LWPOLYLINE
  5
16F6
330
241
100
AcDbEntity
  8
0
  6
Continuous
 62
     9
100
AcDbPolyline
 90
       24
 70
     1
 43
0.0
 10
161.2037316277819
 20
36.89150223142735
 10
161.1734452215316
 20
36.65134988767734
 10
161.0826239715318
 20
36.44116754392754
 10
160.931267877782
 20
36.26157535642747
 10
160.8364219402818
 20
36.18638457517739
 10
160.7389814715316
 20
36.13073504392736
 10
160.6382756902817
 20
36.09460145017745
 10
160.5281410027816
 20
36.07018754392746
 10
160.403692096532
 20
36.05554426267751
 10
160.266219909032
 20
36.05065895017737
 10
159.9527499090321
 20
36.05065895017737
 10
159.9527499090321
 20
37.73818004392746
 10
160.2691561590319
 20
37.73818004392746
 10
160.4031605340319
 20
37.73329473142732
 10
160.5247870965321
 20
37.71863879392752
 10
160.635339440282
 20
37.69422488767742
 10
160.7359313152819
 20
37.65700285642738
 10
160.8326124090318
 20
37.60349223142746
 10
160.9253953777816
 20
37.53308551267753
 10
161.0092810027818
 20
37.44898473142739
 10
161.0788270965318
 20
37.3544805126775
 10
161.1334261590321
 20
37.24891473142749
 10
161.1724706902821
 20
37.13475535642746
 10
161.1959100652818
 20
37.01540691892747
  0
LWPOLYLINE
  5
16F7
330
241
100
AcDbEntity
  8
0
  6
Continuous
 62
     9
100
AcDbPolyline
 90
        6
 70
     1
 43
0.0
 10
158.3472539715319
 20
36.05065895017737
 10
157.6939636590319
 20
36.05065895017737
 10
157.6939636590319
 20
37.73818004392746
 10
157.8843516277818
 20
37.73818004392746
 10
157.8843516277818
 20
36.22351801267753
 10
158.3472539715319
 20
36.22351801267753
  0
LWPOLYLINE
  5
16F8
330
241
100
AcDbEntity
  8
0
  6
Continuous
 62
     9
100
AcDbPolyline
 90
        4
 70
     1
 43
0.0
 10
155.936137096532
 20
36.05065895017737
 10
155.7515710027819
 20
36.05065895017737
 10
155.7515710027819
 20
37.73818004392746
 10
155.936137096532
 20
37.73818004392746
  0
LWPOLYLINE
  5
16F9
330
241
100
AcDbEntity
  8
0
  6
Continuous
 62
     9
100
AcDbPolyline
 90
       48
 70
     1
 43
0.0
 10
153.9878719402818
 20
36.68053520017751
 10
153.984948346532
 20
36.57898145017732
 10
153.9761649090318
 20
36.49109645017749
 10
153.961508971532
 20
36.41689285642745
 10
153.936221784032
 20
36.34753660642735
 10
153.8959749090319
 20
36.28015473142757
 10
153.8414264715318
 20
36.21474723142738
 10
153.710548190282
 20
36.10732098142735
 10
153.5581922527818
 20
36.04285004392743
 10
153.3843586590318
 20
36.02135973142749
 10
153.2223586590319
 20
36.04002770017749
 10
153.0766472527818
 20
36.09643660642751
 10
152.9478699090319
 20
36.19126988767753
 10
152.8876261590319
 20
36.25889223142742
 10
152.8430381902818
 20
36.32779285642746
 10
152.8160170965319
 20
36.39930066892748
 10
152.7985388152818
 20
36.47741504392751
 10
152.7875785027819
 20
36.57115988767752
 10
152.7837816277818
 20
36.68053520017751
 10
152.7837816277818
 20
37.73818004392746
 10
152.9683477215318
 20
37.73818004392746
 10
152.9683477215318
 20
36.73329910642751
 10
152.969322252782
 20
36.63757988767743
 10
152.972271159032
 20
36.56138926267736
 10
152.9771691277818
 20
36.50473988767746
 10
152.9886483465319
 20
36.45570957517751
 10
153.0105689715319
 20
36.40732473142749
 10
153.0415894402818
 20
36.3582944189274
 10
153.0837094402818
 20
36.31357988767748
 10
153.1342711590318
 20
36.27409238767752
 10
153.193970690282
 20
36.24109754392738
 10
153.2583024090319
 20
36.21668363767752
 10
153.3219886590316
 20
36.20204035642744
 10
153.3843586590318
 20
36.19715504392731
 10
153.4458933465319
 20
36.20116707517748
 10
153.507415377782
 20
36.21363348142743
 10
153.568924752782
 20
36.23522504392747
 10
153.6256880340318
 20
36.26365098142751
 10
153.6733261590318
 20
36.29663316892747
 10
153.712522565282
 20
36.33482973142743
 10
153.7429988152815
 20
36.37898738767743
 10
153.7650206902819
 20
36.42446129392739
 10
153.7798917840316
 20
36.47255504392743
 10
153.7896497527817
 20
36.53492504392751
 10
153.7955222527819
 20
36.62206332517742
 10
153.7974839715319
 20
36.73329910642751
 10
153.7974839715319
 20
37.73818004392746
 10
153.9878719402818
 20
37.73818004392746
  0
LWPOLYLINE
  5
16FA
330
241
100
AcDbEntity
  8
0
  6
Continuous
 62
     9
100
AcDbPolyline
 90
        4
 70
     1
 43
0.0
 10
157.806699708676
 20
44.35057205718428
 10
157.165116427426
 20
47.91305330718436
 10
157.135817208676
 20
47.91305330718436
 10
155.3838758024263
 20
44.35057205718428
  0
LWPOLYLINE
  5
16FB
330
241
100
AcDbEntity
  8
0
  6
Continuous
 62
     9
100
AcDbPolyline
 90
        4
 70
     1
 43
0.0
 10
163.0845769402816
 20
36.05065895017737
 10
162.9000108465318
 20
36.05065895017737
 10
162.9000108465318
 20
37.73818004392746
 10
163.0845769402816
 20
37.73818004392746
  0
LWPOLYLINE
  5
16FC
330
241
100
AcDbEntity
  8
0
  6
Continuous
 62
     9
100
AcDbPolyline
 90
        8
 70
     1
 43
0.0
 10
166.3541292840319
 20
35.97446832517743
 10
165.0416128777816
 20
37.35146832517731
 10
165.0416128777816
 20
36.05065895017737
 10
164.8541105340318
 20
36.05065895017737
 10
164.8541105340318
 20
37.81142176267745
 10
166.1695631902816
 20
36.42859988767735
 10
166.1695631902816
 20
37.73818004392746
 10
166.3541292840319
 20
37.73818004392746
  0
LINE
  5
16FD
330
241
100
AcDbEntity
  8
A4 SHEET
 62
     1
100
AcDbLine
 10
161.7750115196279
 20
25.66814837221178
 30
0.0
 11
162.100608947029
 21
24.93071621720657
 31
0.0
  0
LINE
  5
16FE
330
241
100
AcDbEntity
  8
A4 SHEET
 62
     1
100
AcDbLine
 10
161.6578814470682
 20
25.62095549321598
 30
0.0
 11
161.9562263413173
 21
24.95140863558751
 31
0.0
  0
ARC
  5
16FF
330
241
100
AcDbEntity
  8
A4 SHEET
 62
     1
100
AcDbCircle
 10
161.8465515712484
 20
24.8942940409961
 30
0.0
 40
0.1236552955000738
100
AcDbArc
 50
168.243546944009
 51
27.50884589908865
  0
ARC
  5
1700
330
241
100
AcDbEntity
  8
A4 SHEET
 62
     1
100
AcDbCircle
 10
162.0201461300425
 20
24.89518957786307
 30
0.0
 40
0.0879568474900968
100
AcDbArc
 50
350.8766369145476
 51
23.82283237200431
  0
LINE
  5
1701
330
241
100
AcDbEntity
  8
A4 SHEET
 62
     1
100
AcDbLine
 10
161.7263063865091
 20
25.06747680192793
 30
0.0
 11
161.7263063865091
 21
24.91948905685152
 31
0.0
  0
LINE
  5
1702
330
241
100
AcDbEntity
  8
A4 SHEET
 62
     1
100
AcDbLine
 10
161.6072369776238
 20
25.06747680192793
 30
0.0
 11
161.7263063865091
 21
25.06747680192793
 31
0.0
  0
LINE
  5
1703
330
241
100
AcDbEntity
  8
A4 SHEET
 62
     1
100
AcDbLine
 10
161.6072369776238
 20
25.06747680192793
 30
0.0
 11
161.6072369776238
 21
24.93449928680723
 31
0.0
  0
LINE
  5
1704
330
241
100
AcDbEntity
  8
A4 SHEET
 62
     1
100
AcDbLine
 10
162.4203589605766
 20
25.98163135608876
 30
0.0
 11
162.5592736540984
 21
25.98171898295149
 31
0.0
  0
ARC
  5
1705
330
241
100
AcDbEntity
  8
A4 SHEET
 62
     1
100
AcDbCircle
 10
161.8891829330032
 20
25.7395625314019
 30
0.0
 40
0.1346666022624764
100
AcDbArc
 50
350.2912421491238
 51
212.0259577106255
  0
LINE
  5
1706
330
241
100
AcDbEntity
  8
A4 SHEET
 62
     1
100
AcDbLine
 10
162.0219208002475
 20
25.71685234944788
 30
0.0
 11
162.0219208002475
 21
25.52178047422176
 31
0.0
  0
LINE
  5
1707
330
241
100
AcDbEntity
  8
A4 SHEET
 62
     1
100
AcDbLine
 10
162.0219208002475
 20
25.52178047422176
 30
0.0
 11
162.1445968125474
 21
25.52178047422529
 31
0.0
  0
LINE
  5
1708
330
241
100
AcDbEntity
  8
A4 SHEET
 62
     1
100
AcDbLine
 10
161.8718661559288
 20
25.98017596468255
 30
0.0
 11
161.8814849059124
 21
25.98017596468255
 31
0.0
  0
ARC
  5
1709
330
241
100
AcDbEntity
  8
A4 SHEET
 62
     1
100
AcDbCircle
 10
161.8813736696708
 20
25.71695205106321
 30
0.0
 40
0.2632239371237583
100
AcDbArc
 50
359.859248586224
 51
89.97578728046486
  0
LINE
  5
170A
330
241
100
AcDbEntity
  8
A4 SHEET
 62
     1
100
AcDbLine
 10
162.1445968125474
 20
25.52178047422529
 30
0.0
 11
162.1445968125478
 21
25.71630542221303
 31
0.0
  0
ARC
  5
170B
330
241
100
AcDbEntity
  8
A4 SHEET
 62
     1
100
AcDbCircle
 10
161.8694551902315
 20
25.73826744753624
 30
0.0
 40
0.2419205312153546
100
AcDbArc
 50
89.42898419964382
 51
209.0071906269336
  0
ARC
  5
170C
330
241
100
AcDbEntity
  8
A4 SHEET
 62
     1
100
AcDbCircle
 10
161.0745135513535
 20
25.50356174195375
 30
0.0
 40
0.1741545580303916
100
AcDbArc
 50
295.3405620328688
 51
0.0
  0
ARC
  5
170D
330
241
100
AcDbEntity
  8
A4 SHEET
 62
     1
100
AcDbCircle
 10
161.1130693630429
 20
25.54186686614201
 30
0.0
 40
0.2638705424702903
100
AcDbArc
 50
301.4382078386724
 51
0.0
  0
LINE
  5
170E
330
241
100
AcDbEntity
  8
A4 SHEET
 62
     1
100
AcDbLine
 10
161.02470515561
 20
25.78667192792001
 30
0.0
 11
161.02470515561
 21
25.42486305797895
 31
0.0
  0
ARC
  5
170F
330
241
100
AcDbEntity
  8
A4 SHEET
 62
     1
100
AcDbCircle
 10
161.1117824346255
 20
25.42486305797895
 30
0.0
 40
0.0870772790151958
100
AcDbArc
 50
180.0
 51
295.3405620328691
  0
ARC
  5
1710
330
241
100
AcDbEntity
  8
A4 SHEET
 62
     1
100
AcDbCircle
 10
161.1117824346255
 20
25.18444031600675
 30
0.0
 40
0.0870772790151958
100
AcDbArc
 50
64.65943796713133
 51
180.0
  0
ARC
  5
1711
330
241
100
AcDbEntity
  8
A4 SHEET
 62
     1
100
AcDbCircle
 10
161.0745135513535
 20
25.1057416320226
 30
0.0
 40
0.1741545580303916
100
AcDbArc
 50
0.0
 51
64.65943796713161
  0
LINE
  5
1712
330
241
100
AcDbEntity
  8
A4 SHEET
 62
     1
100
AcDbLine
 10
161.248668109385
 20
25.1057416320226
 30
0.0
 11
161.248668109385
 21
24.90133013004049
 31
0.0
  0
LINE
  5
1713
330
241
100
AcDbEntity
  8
A4 SHEET
 62
     1
100
AcDbLine
 10
161.02470515561
 20
25.18444031600675
 30
0.0
 11
161.02470515561
 21
24.82263144606569
 31
0.0
  0
LINE
  5
1714
330
241
100
AcDbEntity
  8
A4 SHEET
 62
     1
100
AcDbLine
 10
161.3769399055136
 20
24.92798620456159
 30
0.0
 11
161.3769399055136
 21
25.09159649905789
 31
0.0
  0
ARC
  5
1715
330
241
100
AcDbEntity
  8
A4 SHEET
 62
     1
100
AcDbCircle
 10
161.1130693630429
 20
25.09159649905789
 30
0.0
 40
0.2638705424702903
100
AcDbArc
 50
0.0
 51
58.56179216132764
  0
LINE
  5
1716
330
241
100
AcDbEntity
  8
A4 SHEET
 62
     1
100
AcDbLine
 10
161.113824888166
 20
25.98083007062752
 30
0.0
 11
160.9113076242473
 21
25.98083007062752
 31
0.0
  0
LINE
  5
1717
330
241
100
AcDbEntity
  8
A4 SHEET
 62
     1
100
AcDbLine
 10
161.248668109385
 20
25.70797324393586
 30
0.0
 11
161.248668109385
 21
25.50356174195375
 31
0.0
  0
ARC
  5
1718
330
241
100
AcDbEntity
  8
A4 SHEET
 62
     1
100
AcDbCircle
 10
161.0745135513535
 20
25.70797324393586
 30
0.0
 40
0.1741545580303916
100
AcDbArc
 50
0.0
 51
64.65943796713161
  0
ARC
  5
1719
330
241
100
AcDbEntity
  8
A4 SHEET
 62
     1
100
AcDbCircle
 10
161.1117824346255
 20
25.78667192792001
 30
0.0
 40
0.0870772790151958
100
AcDbArc
 50
64.65943796713133
 51
180.0
  0
LINE
  5
171A
330
241
100
AcDbEntity
  8
A4 SHEET
 62
     1
100
AcDbLine
 10
161.3769399055136
 20
25.71135317463959
 30
0.0
 11
161.3769399055136
 21
25.54186686614201
 31
0.0
  0
ARC
  5
171B
330
241
100
AcDbEntity
  8
A4 SHEET
 62
     1
100
AcDbCircle
 10
161.1081638536928
 20
25.71135317463959
 30
0.0
 40
0.2695363515008502
100
AcDbArc
 50
0.0
 51
88.79653622827422
  0
LWPOLYLINE
  5
171C
330
241
100
AcDbEntity
  8
0
  6
Continuous
 62
     9
100
AcDbPolyline
 90
       24
 70
     1
 43
0.0
 10
196.7320655340318
 20
48.8827042626774
 10
196.700057877782
 20
48.62390926267747
 10
196.6049081902819
 20
48.3924644189275
 10
196.4478947527821
 20
48.18835707517748
 10
196.2437874090319
 20
48.02723035642745
 10
196.0123299090318
 20
47.93053660642756
 10
195.7535475652819
 20
47.89830113767742
 10
195.4939931902818
 20
47.93043535642732
 10
195.2611308465319
 20
48.0263570751775
 10
195.056251471532
 20
48.18540816892737
 10
194.8951500652816
 20
48.38962941892749
 10
194.7984816277821
 20
48.6218462939275
 10
194.7662588152818
 20
48.8827042626774
 10
194.7977222527816
 20
49.14148660642728
 10
194.8929858465318
 20
49.37294410642756
 10
195.0533658465319
 20
49.57705145017747
 10
195.2583085027819
 20
49.73740613767756
 10
195.4919302215319
 20
49.8326823876774
 10
195.7535475652819
 20
49.86415848142744
 10
196.0081913152816
 20
49.8326823876774
 10
196.2381174090318
 20
49.73740613767756
 10
196.4420222527818
 20
49.57705145017747
 10
196.6031616277815
 20
49.37294410642756
 10
196.6998427215319
 20
49.14148660642728
  0
LWPOLYLINE
  5
171D
330
241
100
AcDbEntity
  8
0
  6
Continuous
 62
     9
100
AcDbPolyline
 90
       43
 70
     1
 43
0.0
 10
195.0621366277816
 20
44.87779848142732
 10
194.3355413152817
 20
40.17564723142739
 10
191.6373300652819
 20
40.17564723142739
 10
192.2085952215319
 20
43.88173895017749
 10
192.225428034032
 20
43.98925379392738
 10
192.2416027215318
 20
44.10133754392751
 10
192.2584228777816
 20
44.21862301267744
 10
192.2926074090316
 20
44.46266082517748
 10
192.3131231902818
 20
44.67283051267744
 10
192.3199702215316
 20
44.84849926267743
 10
192.2976066277815
 20
45.14027645017747
 10
192.2309588152819
 20
45.38192223142742
 10
192.1206975652819
 20
45.5721456689274
 10
191.9196656902818
 20
45.74715629392735
 10
191.6450377215316
 20
45.85121598142747
 10
191.2974970965319
 20
45.88561566892741
 10
190.8227611590319
 20
45.82789051267736
 10
190.4235703777819
 20
45.65428473142731
 10
190.099241315282
 20
45.3641655126774
 10
189.8880717840316
 20
45.03104035642735
 10
189.7283372527818
 20
44.61719363767747
 10
189.6187467840319
 20
44.12195457517747
 10
189.0094116277818
 20
40.17564723142739
 10
186.3111370965318
 20
40.17564723142739
 10
187.4830299090318
 20
47.78405316892739
 10
190.1812538152819
 20
47.78405316892739
 10
190.031872096532
 20
46.8055352001774
 10
190.0611713152818
 20
46.8055352001774
 10
190.4409347527819
 20
47.20961129392735
 10
190.8415303777821
 20
47.53038395017731
 10
191.262325377782
 20
47.76651160642741
 10
191.6879930340321
 20
47.91710832517742
 10
192.1618430340318
 20
48.00651207517736
 10
192.6832045965319
 20
48.03602645017742
 10
193.2698850652819
 20
47.99593145017745
 10
193.7774639715318
 20
47.87562113767751
 10
194.2059286590319
 20
47.67512082517734
 10
194.555291784032
 20
47.39439254392737
 10
194.8726725652819
 20
46.93922316892752
 10
195.0630985027819
 20
46.37010957517746
 10
195.1265569402815
 20
45.68640629392739
 10
195.1189758465318
 20
45.42664941892744
 10
195.0970678777816
 20
45.15712191892736
  0
LWPOLYLINE
  5
171E
330
241
100
AcDbEntity
  8
0
  6
Continuous
 62
     9
100
AcDbPolyline
 90
       71
 70
     1
 43
0.0
 10
177.5103605340318
 20
47.59365254392753
 10
177.1588205340318
 20
45.30845270017755
 10
176.9617500652818
 20
45.4578723876774
 10
176.7640594402819
 20
45.58385270017743
 10
176.5670142840319
 20
45.68640629392739
 10
176.3287224090321
 20
45.7743039501774
 10
176.0884941277819
 20
45.82702988767739
 10
175.8463167840319
 20
45.84460941892735
 10
175.3432688152819
 20
45.78503645017742
 10
174.8766961590319
 20
45.60633020017742
 10
174.4459027215318
 20
45.30845270017755
 10
174.0877308465321
 20
44.92490504392756
 10
173.8402252215316
 20
44.48403723142745
 10
173.7047147527816
 20
43.98717816892747
 10
173.6900588152818
 20
43.87476535642736
 10
173.6812753777819
 20
43.76561785642738
 10
173.6783517840318
 20
43.65906488767734
 10
173.7281541277819
 20
43.2283980126775
 10
173.8775611590318
 20
42.85632957517745
 10
174.1266108465316
 20
42.54287223142735
 10
174.4585210027819
 20
42.30771910642743
 10
174.8561930340319
 20
42.16566535642733
 10
175.3189814715318
 20
42.1180398876774
 10
175.5593110027818
 20
42.13355645017756
 10
175.8061585027819
 20
42.17968848142739
 10
176.0601694402819
 20
42.25576520017741
 10
176.3063714715319
 20
42.35914145017732
 10
176.5356520965319
 20
42.48728598142743
 10
176.7486441277819
 20
42.63952801267731
 10
176.397104127782
 20
40.35144254392746
 10
176.0786349090319
 20
40.21765332517746
 10
175.7555967840318
 20
40.10926520017739
 10
175.4273569402818
 20
40.02626551267734
 10
175.0961935027819
 20
39.96766707517756
 10
174.7643719402821
 20
39.93250801267736
 10
174.4312467840319
 20
39.92077566892737
 10
173.930742721532
 20
39.9468855126775
 10
173.4603478777818
 20
40.02516441892747
 10
173.0198850652821
 20
40.1555237939275
 10
172.6092150652819
 20
40.3378750439274
 10
172.228173346532
 20
40.57216754392736
 10
171.8765827215319
 20
40.85828738767742
 10
171.564833971532
 20
41.18809660642756
 10
171.3094055340318
 20
41.54752145017743
 10
171.1104619402819
 20
41.93641004392747
 10
170.968155065282
 20
42.35459785642727
 10
170.8826494402821
 20
42.80193301267735
 10
170.8541222527816
 20
43.27822566892749
 10
170.859868190282
 20
43.49195176267746
 10
170.876701002782
 20
43.69919785642735
 10
170.9039499090319
 20
43.89928051267736
 10
170.9908730340316
 20
44.34299598142745
 10
171.1132716277818
 20
44.76665129392737
 10
171.2711710027819
 20
45.17027176267752
 10
171.4646091277818
 20
45.55383207517746
 10
171.693611315282
 20
45.9173448876774
 10
171.958202877782
 20
46.26081020017752
 10
172.2584470965319
 20
46.58422801267753
 10
172.594356627782
 20
46.8875983251774
 10
172.9988250652821
 20
47.19196848142753
 10
173.4211767840319
 20
47.44964973142741
 10
173.8613738152819
 20
47.66060410642731
 10
174.3193402215319
 20
47.82476832517746
 10
174.7950506902818
 20
47.94210441892739
 10
175.2884166277818
 20
48.01253645017751
 10
175.7994253777819
 20
48.03602645017742
 10
176.1136674090316
 20
48.02419285642733
 10
176.4168352215316
 20
47.9882617626774
 10
176.7076378777818
 20
47.9276003564273
 10
176.9880244402818
 20
47.84166441892748
 10
177.255387721532
 20
47.73035270017738
  0
LWPOLYLINE
  5
171F
330
241
100
AcDbEntity
  8
0
  6
Continuous
 62
     9
100
AcDbPolyline
 90
       58
 70
     1
 43
0.0
 10
186.4517986590321
 20
43.9725222314273
 10
186.3505486590318
 20
43.48526926267727
 10
186.2014960027819
 20
43.02191129392735
 10
186.0046153777819
 20
42.5824609814274
 10
185.7599194402821
 20
42.16690566892754
 10
185.4674081902821
 20
41.77527066892736
 10
185.0734950652819
 20
41.35618426267742
 10
184.629880846532
 20
40.98681160642736
 10
184.1362870965321
 20
40.66744379392746
 10
183.5924353777816
 20
40.3983339501774
 10
183.144138346532
 20
40.22603176267728
 10
182.6850075652818
 20
40.09228051267746
 10
182.2147772527819
 20
39.99690301267735
 10
181.7331563152819
 20
39.93978535642746
 10
181.2398663152816
 20
39.92077566892737
 10
180.6800550652819
 20
39.94496176267748
 10
180.1550105340321
 20
40.01757066892746
 10
179.6647833465319
 20
40.13867832517745
 10
179.2094747527818
 20
40.30837332517733
 10
178.7891606902818
 20
40.52671895017734
 10
178.4039170965318
 20
40.79381645017746
 10
178.0442770965319
 20
41.1209678564274
 10
177.7503989715316
 20
41.48424020017749
 10
177.5221055340321
 20
41.88365879392756
 10
177.359232252782
 20
42.3192109814274
 10
177.2616272527821
 20
42.79088410642743
 10
177.2291260027816
 20
43.29870348142732
 10
177.234884596532
 20
43.51441660642755
 10
177.2516920965318
 20
43.73924223142757
 10
177.2789030340319
 20
43.9725222314273
 10
177.3801656902821
 20
44.46154707517742
 10
177.5292310027819
 20
44.9266769189274
 10
177.7261116277821
 20
45.36788645017739
 10
177.9708075652818
 20
45.78520098142749
 10
178.2633061590316
 20
46.1785952001773
 10
178.6561181902818
 20
46.5993395751775
 10
179.0964417840319
 20
46.96925645017735
 10
179.5845553777821
 20
47.28808004392745
 10
180.1207374090318
 20
47.55554457517756
 10
180.5739450652819
 20
47.72813785642731
 10
181.0372777215319
 20
47.86262316892733
 10
181.5110138152818
 20
47.95887395017738
 10
181.9954444402818
 20
48.01671301267738
 10
182.4908480340321
 20
48.03602645017742
 10
183.0518869402819
 20
48.01182770017749
 10
183.5777667840316
 20
47.93913020017746
 10
184.0685002215321
 20
47.8177694189275
 10
184.5240619402818
 20
47.64756816892735
 10
184.9444772527818
 20
47.42838723142752
 10
185.3297335027819
 20
47.16006207517749
 10
185.6881331902821
 20
46.83389785642741
 10
185.9811886590319
 20
46.47080270017744
 10
186.2089758465318
 20
46.07092848142744
 10
186.3715833465319
 20
45.63443973142753
 10
186.4690997527818
 20
45.16147566892739
 10
186.5015756902818
 20
44.65222613767753
 10
186.4958424090319
 20
44.4323870751774
 10
186.479034909032
 20
44.20604270017742
  0
CIRCLE
  5
1720
330
241
100
AcDbEntity
  8
A4 SHEET
 62
     1
100
AcDbCircle
 10
177.252921773497
 20
1.410307015393168
 30
0.0
 40
0.6287171708504502
  0
TEXT
  5
1721
330
241
100
AcDbEntity
  8
A4 SHEET
 62
     1
100
AcDbText
 10
176.7270957331506
 20
0.9126015990444972
 30
0.0
 40
1.0
  1
C Ancon Building Products
  7
ROMANS
100
AcDbText
  0
LWPOLYLINE
  5
1722
330
241
100
AcDbEntity
  8
0
  6
Continuous
 62
     9
100
AcDbPolyline
 90
       48
 70
     1
 43
0.0
 10
186.1705261590319
 20
36.68053520017751
 10
186.1676025652819
 20
36.57691848142734
 10
186.1588191277818
 20
36.48827410642741
 10
186.144163190282
 20
36.41395660642739
 10
186.1186608465319
 20
36.34666332517739
 10
186.0768825652819
 20
36.28004082517738
 10
186.0181955340319
 20
36.21474723142738
 10
185.8880766277819
 20
36.10732098142735
 10
185.7371381902821
 20
36.04285004392743
 10
185.564063971532
 20
36.02135973142749
 10
185.4002161590319
 20
36.04002770017749
 10
185.2552514715316
 20
36.09643660642751
 10
185.1304735027819
 20
36.19126988767753
 10
185.0728749090318
 20
36.25780379392741
 10
185.0289324090319
 20
36.32886863767736
 10
184.9986713152821
 20
36.40513520017738
 10
184.9791174090318
 20
36.48827410642741
 10
184.9673977215319
 20
36.57985473142751
 10
184.9634995965319
 20
36.68053520017751
 10
184.9634995965319
 20
37.73818004392746
 10
185.1510019402819
 20
37.73818004392746
 10
185.1510019402819
 20
36.73329910642751
 10
185.151976471532
 20
36.63757988767743
 10
185.1549000652818
 20
36.56138926267736
 10
185.1597600652819
 20
36.50473988767746
 10
185.1706317840316
 20
36.45570957517751
 10
185.1919195965319
 20
36.40732473142749
 10
185.224243659032
 20
36.3582944189274
 10
185.264262721532
 20
36.31151691892752
 10
185.3140650652816
 20
36.27125738767749
 10
185.3736253777818
 20
36.23816129392738
 10
185.437995065282
 20
36.21581035642743
 10
185.5016939715318
 20
36.20192645017736
 10
185.564063971532
 20
36.19715504392731
 10
185.6268010027818
 20
36.20116707517748
 10
185.6869308465318
 20
36.21363348142743
 10
185.7457444402819
 20
36.23522504392747
 10
185.8021660027819
 20
36.26462551267745
 10
185.8533731902821
 20
36.30055660642737
 10
185.8980624090319
 20
36.34365113767745
 10
185.9312597527816
 20
36.39235238767753
 10
185.9546991277819
 20
36.44433160642743
 10
185.9683678777819
 20
36.49890535642732
 10
185.9753288152821
 20
36.56227520017749
 10
185.9789991277818
 20
36.64060473142736
 10
185.9800749090319
 20
36.73329910642751
 10
185.9800749090319
 20
37.73818004392746
 10
186.1705261590319
 20
37.73818004392746
  0
MTEXT
  5
1723
330
241
100
AcDbEntity
  8
A4 SHEET
 62
     1
100
AcDbMText
 10
181.9733151526893
 20
19.81049211008792
 30
0.0
 40
1.199999999999999
 41
28.10999999999999
 71
     5
 72
     5
  1
BS EN ISO 9001:1994\PFM 12226
  7
ROMANS
 73
     1
 44
1.0
  0
LWPOLYLINE
  5
1724
330
241
100
AcDbEntity
  8
0
  6
Continuous
 62
     9
100
AcDbPolyline
 90
       20
 70
     1
 43
0.0
 10
177.0210952215318
 20
36.05065895017737
 10
176.7896503777818
 20
36.05065895017737
 10
176.2799072527819
 20
36.78896129392736
 10
176.2330285027819
 20
36.78896129392736
 10
176.2330285027819
 20
36.05065895017737
 10
176.0425772527818
 20
36.05065895017737
 10
176.0425772527818
 20
37.73818004392746
 10
176.2886780340319
 20
37.73818004392746
 10
176.4594614715318
 20
37.72765004392743
 10
176.602274596532
 20
37.6969333251775
 10
176.7164592840319
 20
37.64734613767753
 10
176.8217972527818
 20
37.55652488767747
 10
176.8854708465318
 20
37.43054457517743
 10
176.9068472527816
 20
37.26939254392734
 10
176.8940391277821
 20
37.14515879392733
 10
176.8551970965319
 20
37.03523926267742
 10
176.7896503777818
 20
36.93834301267745
 10
176.7048155340318
 20
36.86508863767748
 10
176.6030466277818
 20
36.8211461376774
 10
176.4850017840321
 20
36.80650285642745
  0
LWPOLYLINE
  5
1725
330
241
100
AcDbEntity
  8
0
  6
Continuous
 62
     9
100
AcDbPolyline
 90
       26
 70
     1
 43
0.0
 10
174.3873042840319
 20
37.26062176267741
 10
174.368864127782
 20
37.12097270017749
 10
174.3139613152816
 20
37.0008648876775
 10
174.2232666277818
 20
36.9002730126775
 10
174.1705153777821
 20
36.86120316892746
 10
174.1119169402819
 20
36.83190395017748
 10
174.047483971532
 20
36.81237535642749
 10
173.9793553777818
 20
36.79979504392736
 10
173.9046961590318
 20
36.79177098142736
 10
173.8248478777818
 20
36.78896129392736
 10
173.6871225652819
 20
36.78896129392736
 10
173.6871225652819
 20
36.05065895017737
 10
173.4996202215319
 20
36.05065895017737
 10
173.4996202215319
 20
37.73818004392746
 10
173.7779564715318
 20
37.73818004392746
 10
173.8648795965316
 20
37.73633223142745
 10
173.9439685027818
 20
37.73121910642741
 10
174.0152358465319
 20
37.72352410642743
 10
174.0787322527818
 20
37.7076784814275
 10
174.1402542840318
 20
37.68272035642742
 10
174.1998019402818
 20
37.64734613767753
 10
174.2523380340318
 20
37.60145457517757
 10
174.2976980340319
 20
37.54579238767734
 10
174.3345910027818
 20
37.48037223142752
 10
174.363890221532
 20
37.40711785642732
 10
174.3814570965319
 20
37.33387613767737
  0
LWPOLYLINE
  5
1726
330
241
100
AcDbEntity
  8
0
  6
Continuous
 62
     9
100
AcDbPolyline
 90
       15
 70
     1
 43
0.0
 10
176.7164592840319
 20
37.2576855126774
 10
176.7025500652816
 20
37.37008566892756
 10
176.6599997527819
 20
37.45580645017743
 10
176.587504752782
 20
37.51549332517746
 10
176.5152502215319
 20
37.54067926267729
 10
176.4156328777819
 20
37.5567400439275
 10
176.2886780340319
 20
37.56238473142742
 10
176.2330285027819
 20
37.56238473142742
 10
176.2330285027819
 20
36.95593520017737
 10
176.2916269402818
 20
36.95593520017737
 10
176.4105450652818
 20
36.96179504392745
 10
176.5086436590319
 20
36.97936191892748
 10
176.584606471532
 20
37.0086484814274
 10
176.6578608465319
 20
37.06604457517754
 10
176.7018033465316
 20
37.1494998876774
  0
LWPOLYLINE
  5
1727
330
241
100
AcDbEntity
  8
0
  6
Continuous
 62
     9
100
AcDbPolyline
 90
       15
 70
     1
 43
0.0
 10
174.1998019402818
 20
37.26645629392746
 10
174.1842980340319
 20
37.37802113767742
 10
174.1381913152819
 20
37.46157770017747
 10
174.0621272527819
 20
37.51842957517736
 10
173.9870250652821
 20
37.54285613767746
 10
173.8852435027818
 20
37.55749941892752
 10
173.757428034032
 20
37.56238473142742
 10
173.6871225652819
 20
37.56238473142742
 10
173.6871225652819
 20
36.96180770017743
 10
173.8130902215319
 20
36.96180770017743
 10
173.9207316277816
 20
36.96788270017743
 10
174.0101606902816
 20
36.98696832517747
 10
174.0826556902819
 20
37.02040613767745
 10
174.1468608465319
 20
37.08029551267754
 10
174.1863483465319
 20
37.16166254392739
  0
LWPOLYLINE
  5
1728
330
241
100
AcDbEntity
  8
0
  6
Continuous
 62
     9
100
AcDbPolyline
 90
       21
 70
     1
 43
0.0
 10
183.1031700652819
 20
36.89150223142735
 10
183.0787561590319
 20
37.08668691892738
 10
183.0055144402819
 20
37.25583770017751
 10
182.8834322527816
 20
37.39829645017754
 10
182.8110638152816
 20
37.45387004392753
 10
182.7341264715316
 20
37.49705316892739
 10
182.6519874090319
 20
37.5272003564274
 10
182.5650769402821
 20
37.54675426267756
 10
182.4683831902819
 20
37.55847395017745
 10
182.3619441277818
 20
37.56238473142742
 10
182.2242694402816
 20
37.56238473142742
 10
182.2242694402816
 20
36.22351801267753
 10
182.3619441277818
 20
36.22351801267753
 10
182.4752302215319
 20
36.22730223142745
 10
182.5748349090321
 20
36.23826254392735
 10
182.6607581902819
 20
36.25575348142743
 10
182.7409608465318
 20
36.28710301267743
 10
182.8178855340316
 20
36.33474113767739
 10
182.892203034032
 20
36.39930066892748
 10
183.0093999090316
 20
36.54188598142745
 10
183.0797306902821
 20
36.70593629392753
  0
LWPOLYLINE
  5
1729
330
241
100
AcDbEntity
  8
0
  6
Continuous
 62
     9
100
AcDbPolyline
 90
       24
 70
     1
 43
0.0
 10
183.2935706902819
 20
36.89150223142735
 10
183.2623224090318
 20
36.65134988767734
 10
183.1685902215316
 20
36.44116754392754
 10
183.0123361590319
 20
36.26157535642747
 10
182.9176041277818
 20
36.18638457517739
 10
182.8209230340318
 20
36.13073504392736
 10
182.7222928777819
 20
36.09460145017745
 10
182.6140060027818
 20
36.07018754392746
 10
182.4887977215318
 20
36.05554426267751
 10
182.3472881902819
 20
36.05065895017737
 10
182.0338181902819
 20
36.05065895017737
 10
182.0338181902819
 20
37.73818004392746
 10
182.3531733465319
 20
37.73818004392746
 10
182.4870638152819
 20
37.73329473142732
 10
182.6079310027818
 20
37.71863879392752
 10
182.7164077215319
 20
37.69422488767742
 10
182.8178728777818
 20
37.65688895017742
 10
182.916730846532
 20
37.60263160642749
 10
183.0123361590319
 20
37.5301492626775
 10
183.0962217840321
 20
37.44617504392752
 10
183.1657678777821
 20
37.35241754392757
 10
183.2203163152821
 20
37.24891473142749
 10
183.2601455340316
 20
37.13671707517754
 10
183.2850024090321
 20
37.01736863767745
  0
LWPOLYLINE
  5
172A
330
241
100
AcDbEntity
  8
0
  6
Continuous
 62
     9
100
AcDbPolyline
 90
       24
 70
     1
 43
0.0
 10
180.164679909032
 20
36.89150223142735
 10
180.1423289715319
 20
37.07714410642735
 10
180.0757191277818
 20
37.24194113767747
 10
179.9654705340318
 20
37.38658941892737
 10
179.820923502782
 20
37.50097660642742
 10
179.6568478777818
 20
37.56911785642743
 10
179.4732689715319
 20
37.59168395017731
 10
179.2904367840316
 20
37.56845973142743
 10
179.1277913152818
 20
37.49967301267749
 10
178.9840163152821
 20
37.38658941892737
 10
178.8717047527818
 20
37.24000473142743
 10
178.8043228777817
 20
37.07519504392748
 10
178.7818580340319
 20
36.89150223142735
 10
178.8043228777817
 20
36.71192270017751
 10
178.8717047527818
 20
36.54860645017748
 10
178.9840163152821
 20
36.40224957517735
 10
179.1277913152818
 20
36.28786238767754
 10
179.2904367840316
 20
36.21972113767741
 10
179.4732689715319
 20
36.19715504392731
 10
179.654810221532
 20
36.21972113767741
 10
179.8181011590318
 20
36.28786238767754
 10
179.9625342840319
 20
36.40224957517735
 10
180.0748458465319
 20
36.54860645017748
 10
180.1422277215318
 20
36.71192270017751
  0
LWPOLYLINE
  5
172B
330
241
100
AcDbEntity
  8
0
  6
Continuous
 62
     9
100
AcDbPolyline
 90
       24
 70
     1
 43
0.0
 10
180.352182252782
 20
36.89150223142735
 10
180.3237563152819
 20
36.66090535642742
 10
180.2380355340316
 20
36.45507676267746
 10
180.0943744402816
 20
36.27334566892749
 10
179.9118713152819
 20
36.13378520017745
 10
179.7046125652816
 20
36.04957051267749
 10
179.4732689715319
 20
36.02135973142749
 10
179.2438997527819
 20
36.04968441892743
 10
179.0366410027818
 20
36.13463316892746
 10
178.8521761590316
 20
36.27623129392754
 10
178.7085024090318
 20
36.45788645017752
 10
178.6227942840318
 20
36.66296832517736
 10
178.5943556902818
 20
36.89150223142735
 10
178.6226803777821
 20
37.12012473142749
 10
178.7076417840319
 20
37.32596598142743
 10
178.8492272527819
 20
37.50967145017741
 10
179.0338060027818
 20
37.65333254392754
 10
179.2418241277816
 20
37.73905332517742
 10
179.4732689715319
 20
37.76747926267734
 10
179.6999297527819
 20
37.73905332517742
 10
179.9057710027816
 20
37.65333254392754
 10
180.0914381902819
 20
37.50967145017741
 10
180.2358586590318
 20
37.32596598142743
 10
180.322996940282
 20
37.12012473142749
  0
LWPOLYLINE
  5
172C
330
241
100
AcDbEntity
  8
0
  6
Continuous
 62
     9
100
AcDbPolyline
 90
       33
 70
     1
 43
0.0
 10
183.6012061590319
 20
43.9725222314273
 10
183.6090024090319
 20
44.02548863767738
 10
183.6148749090319
 20
44.08561848142737
 10
183.6187983465316
 20
44.1542027001775
 10
183.6208233465318
 20
44.21462363767747
 10
183.621570065282
 20
44.25487051267739
 10
183.621683971532
 20
44.27428520017731
 10
183.5796905340318
 20
44.66188285642735
 10
183.4537355340319
 20
44.99803285642737
 10
183.2437936590316
 20
45.2821023876774
 10
182.9421192840318
 20
45.51159816892735
 10
182.5708102215321
 20
45.64931082517753
 10
182.1304866277818
 20
45.69521504392747
 10
181.6216927215316
 20
45.63867957517738
 10
181.1675991277819
 20
45.46950348142742
 10
180.7681931902821
 20
45.18837020017739
 10
180.4626333465319
 20
44.83864004392752
 10
180.2495147527819
 20
44.43357676267726
 10
180.1295081902819
 20
43.9725222314273
 10
180.1148522527818
 20
43.86512129392747
 10
180.1060688152819
 20
43.75964410642736
 10
180.1031452215321
 20
43.65611598142749
 10
180.1459992840318
 20
43.26831582517743
 10
180.274143815282
 20
42.93651957517738
 10
180.4869206902818
 20
42.66005645017728
 10
180.7885824090319
 20
42.44031863767742
 10
181.1599041277819
 20
42.30847848142743
 10
181.6002150652818
 20
42.26452332517735
 10
182.1101100652816
 20
42.31910973142745
 10
182.5620394402816
 20
42.48242598142745
 10
182.9566866277819
 20
42.75378863767734
 10
183.2630817840319
 20
43.09774754392752
 10
183.4783645965319
 20
43.50355754392739
  0
LWPOLYLINE
  5
172D
330
241
100
AcDbEntity
  8
0
  6
Continuous
 62
     9
100
AcDbPolyline
 90
       76
 70
     1
 43
0.0
 10
194.4000249090319
 20
36.53992426267734
 10
194.3832047527818
 20
36.40124973142734
 10
194.3318710027819
 20
36.27820566892747
 10
194.2447580340318
 20
36.17079207517743
 10
194.1345220965316
 20
36.08777973142743
 10
194.009301159032
 20
36.03796473142752
 10
193.8697533465319
 20
36.02135973142749
 10
193.7417100652816
 20
36.03426910642753
 10
193.6266900652818
 20
36.07387051267753
 10
193.5240478777819
 20
36.14149285642742
 10
193.4418961590318
 20
36.22937785642749
 10
193.3825383465318
 20
36.33484238767739
 10
193.345316315282
 20
36.45789910642752
 10
193.5298824090321
 20
36.51062504392747
 10
193.5495502215319
 20
36.42349941892753
 10
193.5854560027819
 20
36.34875160642752
 10
193.6383085027821
 20
36.28505270017743
 10
193.7046019402818
 20
36.2362122314275
 10
193.7800078777819
 20
36.20692566892758
 10
193.863880846532
 20
36.19715504392731
 10
193.9557019402819
 20
36.20702691892743
 10
194.037727096532
 20
36.23708551267744
 10
194.1099816277818
 20
36.28798895017743
 10
194.1665044402821
 20
36.35524426267743
 10
194.2009041277818
 20
36.43358645017736
 10
194.2125225652819
 20
36.52233207517743
 10
194.2018913152818
 20
36.60512926267736
 10
194.1704278777816
 20
36.67685223142743
 10
194.1188030340319
 20
36.7361847314274
 10
194.0690766277819
 20
36.77320426267746
 10
193.9965942840316
 20
36.81346379392738
 10
193.9020014715316
 20
36.85633051267753
 10
193.7994478777821
 20
36.90615816892739
 10
193.6909331902818
 20
36.95887145017742
 10
193.6052124090318
 20
37.01159738767738
 10
193.5416400652816
 20
37.06436129392749
 10
193.4802192840319
 20
37.14148848142748
 10
193.4428706902819
 20
37.23230973142742
 10
193.4302777215318
 20
37.3368123876775
 10
193.4457942840318
 20
37.45573051267739
 10
193.4919263152818
 20
37.55967629392742
 10
193.5680030340318
 20
37.64734613767753
 10
193.6656713152821
 20
37.71365223142751
 10
193.7769956902818
 20
37.75391176267755
 10
193.9020014715316
 20
37.76747926267734
 10
193.9934555340318
 20
37.75975895017742
 10
194.0790624090316
 20
37.73706629392738
 10
194.1568603777819
 20
37.70005941892754
 10
194.2281530340319
 20
37.64928254392743
 10
194.2896750652818
 20
37.58483691892732
 10
194.341426471532
 20
37.50672254392743
 10
194.1891085027821
 20
37.40711785642732
 10
194.1520889715319
 20
37.4657036376774
 10
194.1118294402818
 20
37.51256973142754
 10
194.0689753777818
 20
37.54772879392737
 10
194.022311784032
 20
37.57215535642743
 10
193.9652447527816
 20
37.58679863767739
 10
193.8990525652819
 20
37.59168395017731
 10
193.8246085027819
 20
37.5837611376774
 10
193.7586441277818
 20
37.55957504392754
 10
193.6998431902821
 20
37.51842957517736
 10
193.655875377782
 20
37.46461520017749
 10
193.6295124090319
 20
37.40233379392742
 10
193.6207163152818
 20
37.33093988767734
 10
193.6297275652819
 20
37.26735488767745
 10
193.6576092840319
 20
37.21094598142743
 10
193.7056777215316
 20
37.16101707517747
 10
193.7466966277818
 20
37.13398332517737
 10
193.8052950652819
 20
37.10111504392752
 10
193.8814730340316
 20
37.06436129392749
 10
193.9927847527821
 20
37.01746988767742
 10
194.1127913152819
 20
36.95963082517742
 10
194.2087130340319
 20
36.90244988767742
 10
194.279891784032
 20
36.84461082517738
 10
194.3475141277816
 20
36.75975066892751
 10
194.3871155340318
 20
36.65796910642741
  0
LWPOLYLINE
  5
172E
330
241
100
AcDbEntity
  8
0
  6
Continuous
 62
     9
100
AcDbPolyline
 90
        8
 70
     1
 43
0.0
 10
191.8131127215318
 20
37.56238473142742
 10
191.4000506902819
 20
37.56238473142742
 10
191.4000506902819
 20
36.05065895017737
 10
191.212548346532
 20
36.05065895017737
 10
191.212548346532
 20
37.56238473142742
 10
190.8052955340318
 20
37.56238473142742
 10
190.8052955340318
 20
37.73818004392746
 10
191.8131127215318
 20
37.73818004392746
  0
LWPOLYLINE
  5
172F
330
241
100
AcDbEntity
  8
0
  6
Continuous
 62
     9
100
AcDbPolyline
 90
       38
 70
     1
 43
0.0
 10
189.2115572527816
 20
36.18249910642747
 10
189.0521391277819
 20
36.09253848142738
 10
188.8836338152818
 20
36.03904051267746
 10
188.704712409032
 20
36.02135973142749
 10
188.4760899090319
 20
36.04957051267749
 10
188.2702486590319
 20
36.13378520017745
 10
188.0865431902818
 20
36.27334566892749
 10
187.9449577215319
 20
36.45496285642734
 10
187.859996315282
 20
36.66003207517747
 10
187.8316842840319
 20
36.88856598142746
 10
187.859996315282
 20
37.1152141064274
 10
187.9449577215319
 20
37.32105535642735
 10
188.0865431902818
 20
37.50672254392743
 10
188.2702486590319
 20
37.6511556689274
 10
188.4760899090319
 20
37.73828129392745
 10
188.704712409032
 20
37.76747926267734
 10
188.8855955340318
 20
37.74892520017743
 10
189.0541008465318
 20
37.69325035642747
 10
189.2115572527816
 20
37.60045473142736
 10
189.2115572527816
 20
37.36899723142743
 10
189.0589861590319
 20
37.49183879392747
 10
188.887544596532
 20
37.56651066892743
 10
188.6959416277819
 20
37.59168395017731
 10
188.5192730340319
 20
37.56824457517736
 10
188.3589056902818
 20
37.49793910642729
 10
188.215459752782
 20
37.38076754392746
 10
188.1039075652821
 20
37.23306910642742
 10
188.0379431902819
 20
37.07042363767742
 10
188.0162377215318
 20
36.89150223142735
 10
188.0387025652816
 20
36.71396035642742
 10
188.1060844402819
 20
36.55141613767735
 10
188.2183960027818
 20
36.40513520017738
 10
188.3619305340319
 20
36.28872301267752
 10
188.5230572527819
 20
36.21982238767751
 10
188.7017761590319
 20
36.19715504392731
 10
188.8892658465319
 20
36.2216702001775
 10
189.0592013152819
 20
36.29567129392738
 10
189.2115572527816
 20
36.41977848142757
  0
LWPOLYLINE
  5
1730
330
241
100
AcDbEntity
  8
0
  6
Continuous
 62
     9
100
AcDbPolyline
 90
       12
 70
     1
 43
0.0
 10
195.9527569402816
 20
49.15810426267753
 10
195.9322411590318
 20
49.25293754392743
 10
195.8707191277819
 20
49.30934645017746
 10
195.7681908465318
 20
49.32801441892745
 10
195.527975221532
 20
49.32801441892745
 10
195.527975221532
 20
48.95007348142737
 10
195.7095924090321
 20
48.95007348142737
 10
195.7806699090316
 20
48.95669270017744
 10
195.840673190282
 20
48.97568973142742
 10
195.8883239715318
 20
49.00572301267753
 10
195.9245461590318
 20
49.04784301267753
 10
195.9458086590321
 20
49.09840473142743
  0
LWPOLYLINE
  5
1731
330
241
100
AcDbEntity
  8
0
  6
Continuous
 62
     9
100
AcDbPolyline
 90
       23
 70
     1
 43
0.0
 10
196.2105647527819
 20
48.35536895017739
 10
196.1168452215319
 20
48.36413973142732
 10
196.0230624090318
 20
48.35536895017739
 10
195.9205214715318
 20
48.49304363767751
 10
195.7213120965319
 20
48.72450113767745
 10
195.5924081902819
 20
48.86804832517747
 10
195.527975221532
 20
48.86804832517747
 10
195.527975221532
 20
48.35536895017739
 10
195.4605553777819
 20
48.36413973142732
 10
195.3873136590321
 20
48.35536895017739
 10
195.3873136590321
 20
49.41002691892747
 10
195.7359553777821
 20
49.41002691892747
 10
195.9382149090318
 20
49.38377785642757
 10
196.0590947527821
 20
49.3054483251775
 10
196.0992530340319
 20
49.17568379392753
 10
196.0875206902818
 20
49.09851863767737
 10
196.0523616277819
 20
49.03113676267736
 10
195.9937631902818
 20
48.97353816892746
 10
195.9292036590319
 20
48.93436707517743
 10
195.8522789715319
 20
48.90430848142745
 10
195.762318346532
 20
48.8827042626774
 10
196.0992530340319
 20
48.47840035642732
 10
196.1783292840321
 20
48.39343895017744
  0
LWPOLYLINE
  5
1732
330
241
100
AcDbEntity
  8
0
  6
Continuous
 62
     9
100
AcDbPolyline
 90
       24
 70
     1
 43
0.0
 10
196.5767986590318
 20
48.8827042626774
 10
196.5503217840321
 20
49.10058160642744
 10
196.470435534032
 20
49.29762676267731
 10
196.3365324090319
 20
49.47451051267738
 10
196.1645719402819
 20
49.6132736376774
 10
195.9704503777819
 20
49.69604551267742
 10
195.7535475652819
 20
49.72349691892752
 10
195.5364169402819
 20
49.69604551267742
 10
195.3407766277818
 20
49.6132736376774
 10
195.1646775652818
 20
49.47451051267738
 10
195.0258891277821
 20
49.29762676267731
 10
194.9430919402819
 20
49.10058160642744
 10
194.9156405340318
 20
48.8827042626774
 10
194.9428767840318
 20
48.66199191892734
 10
195.0241425652821
 20
48.46276988767747
 10
195.1588050652819
 20
48.28501285642757
 10
195.3344864715319
 20
48.14756598142736
 10
195.5329491277819
 20
48.06413598142743
 10
195.7535475652819
 20
48.03602645017742
 10
195.9704503777819
 20
48.06413598142743
 10
196.1645719402819
 20
48.14756598142736
 10
196.3365324090319
 20
48.28501285642757
 10
196.470435534032
 20
48.46276988767747
 10
196.5503217840321
 20
48.66199191892734
  0
ENDBLK
  5
243
330
241
100
AcDbEntity
  8
0
100
AcDbBlockEnd
  0
BLOCK
  5
2CF
330
2C4
100
AcDbEntity
  8
0
100
AcDbBlockBegin
  2
A4REV
 70
     2
 10
0.0
 20
0.0
 30
0.0
  3
A4REV
  1

  0
ATTDEF
  5
2C5
330
2C4
100
AcDbEntity
  8
A4 SHEET
 62
     6
100
AcDbText
 10
-102.7026410691672
 20
1.631585712301556
 30
0.0
 40
1.5
  1
CK
  7
ROMANS
 72
     1
 11
-101.2026410691672
 21
1.631585712301556
 31
0.0
100
AcDbAttributeDefinition
  3
INITIALS ?
  2
INITIALS
 70
     0
  0
LINE
  5
2C6
330
2C4
100
AcDbEntity
  8
A4 SHEET
 62
     2
100
AcDbLine
 10
-105.0
 20
0.0
 30
0.0
 11
-105.0
 21
4.893248268914362
 31
0.0
  0
LINE
  5
2C7
330
2C4
100
AcDbEntity
  8
A4 SHEET
 62
     2
100
AcDbLine
 10
-97.5
 20
0.0
 30
0.0
 11
-97.5
 21
4.893248268914362
 31
0.0
  0
ATTDEF
  5
2C8
330
2C4
100
AcDbEntity
  8
A4 SHEET
 62
     6
100
AcDbText
 10
-96.93640424986538
 20
1.631585712301556
 30
0.0
 40
1.5
  1
04/01/00
  7
ROMANS
 72
     1
 11
-91.07926139272251
 21
1.631585712301556
 31
0.0
100
AcDbAttributeDefinition
  3
DATE ?
  2
DATE
 70
     0
  0
ATTDEF
  5
2C9
330
2C4
100
AcDbEntity
  8
A4 SHEET
 62
     6
100
AcDbText
 10
-83.74184295500919
 20
1.631585712301556
 30
0.0
 40
1.5
  1
ISSUED FOR APPROVAL
  7
ROMANS
100
AcDbAttributeDefinition
  3
REV NOTE ?
  2
REV-NOTE
 70
     0
  0
LINE
  5
2CA
330
2C4
100
AcDbEntity
  8
A4 SHEET
 62
     2
100
AcDbLine
 10
-84.74999999999999
 20
0.0
 30
0.0
 11
-84.74999999999999
 21
4.893248268914362
 31
0.0
  0
ATTDEF
  5
2CB
330
2C4
100
AcDbEntity
  8
A4 SHEET
 62
     6
100
AcDbText
 10
-7.543075159400594
 20
1.631585712301556
 30
0.0
 40
1.5
  1
P1
  7
ROMANS
 72
     1
 11
-6.257360873686308
 21
1.631585712301556
 31
0.0
100
AcDbAttributeDefinition
  3
LETTER ?
  2
LETTER
 70
     0
  0
LINE
  5
2CC
330
2C4
100
AcDbEntity
  8
A4 SHEET
 62
     2
100
AcDbLine
 10
-9.75
 20
0.0
 30
0.0
 11
-9.75
 21
4.893248268914362
 31
0.0
  0
LINE
  5
2CD
330
2C4
100
AcDbEntity
  8
A4 SHEET
 62
     2
100
AcDbLine
 10
-105.0
 20
0.0
 30
0.0
 11
0.0
 21
0.0
 31
0.0
  0
LINE
  5
2CE
330
2C4
100
AcDbEntity
  8
A4 SHEET
 62
     2
100
AcDbLine
 10
0.0
 20
0.0
 30
0.0
 11
0.0
 21
4.893248268914362
 31
0.0
  0
ENDBLK
  5
2D0
330
2C4
100
AcDbEntity
  8
0
100
AcDbBlockEnd
  0
BLOCK
  5
169B
330
169A
100
AcDbEntity
  8
0
100
AcDbBlockBegin
  2
A4
 70
     0
 10
0.0
 20
0.0
 30
0.0
  3
A4
  1

  0
ENDBLK
  5
169C
330
169A
100
AcDbEntity
  8
0
100
AcDbBlockEnd
  0
ENDSEC
  0
SECTION
  2
ENTITIES
  0
MTEXT
  5
918
330
1F
100
AcDbEntity
  8
DANCON
100
AcDbMText
 10
-12280.38284632575
 20
-5576.755320356837
 30
0.0
 40
9.0
 41
0.0
 71
     1
 72
     1
  1

  7
ROMANS
 73
     1
 44
1.0
  0
MTEXT
  5
91C
330
1F
100
AcDbEntity
  8
DANCON
100
AcDbMText
 10
-12280.38284632575
 20
-5576.755320356837
 30
0.0
 40
9.0
 41
0.0
 71
     1
 72
     1
  1

  7
ROMANS
 73
     1
 44
1.0
  0
TEXT
  5
1861
330
1F
100
AcDbEntity
  8
ANCON-TEXT
100
AcDbText
 10
30.39317433694776
 20
149.2774784436585
 30
0.0
 40
9.0
  1

  7
ROMANS
100
AcDbText
  0
TEXT
  5
1A77
330
1F
100
AcDbEntity
  8
ANCON-TEXT
100
AcDbText
 10
2321.044382920176
 20
2968.594530868429
 30
0.0
 40
9.0
  1

  7
ROMANS
100
AcDbText
  0
LINE
  5
246D
330
1F
100
AcDbEntity
  8
ANCON-BOLT
  6
Continuous
100
AcDbLine
 10
3070.126903824489
 20
2874.998454822744
 30
0.0
 11
3077.637661562334
 21
2887.498454822745
 31
0.0
  0
LINE
  5
246E
330
1F
100
AcDbEntity
  8
ANCON-BOLT
  6
Continuous
100
AcDbLine
 10
3077.637661562334
 20
2887.498454822745
 30
0.0
 11
3248.637661562336
 21
2887.498454822745
 31
0.0
  0
LINE
  5
246F
330
1F
100
AcDbEntity
  8
ANCON-BOLT
  6
Continuous
100
AcDbLine
 10
3248.637661562336
 20
2887.498454822745
 30
0.0
 11
3248.637661562336
 21
2862.498454822745
 31
0.0
  0
LINE
  5
2470
330
1F
100
AcDbEntity
  8
ANCON-BOLT
  6
Continuous
100
AcDbLine
 10
3248.637661562336
 20
2862.498454822745
 30
0.0
 11
3077.637661562334
 21
2862.498454822745
 31
0.0
  0
LINE
  5
2471
330
1F
100
AcDbEntity
  8
ANCON-BOLT
  6
Continuous
100
AcDbLine
 10
3077.637661562334
 20
2862.498454822745
 30
0.0
 11
3070.126903824489
 21
2874.998454822744
 31
0.0
  0
LINE
  5
2472
330
1F
100
AcDbEntity
  8
ANCON-BOLT
  6
Continuous
100
AcDbLine
 10
3077.637661562334
 20
2862.498454822745
 30
0.0
 11
3077.637661562334
 21
2887.498454822745
 31
0.0
  0
LINE
  5
2473
330
1F
100
AcDbEntity
  8
ANCON-BOLT
  6
Continuous
100
AcDbLine
 10
3065.137661562335
 20
2874.998454822744
 30
0.0
 11
3354.1282169345
 21
2874.998454822744
 31
0.0
  0
LINE
  5
2475
330
1F
100
AcDbEntity
  8
ANCON-BOLT
  6
Continuous
100
AcDbLine
 10
3078.637661562335
 20
2864.998454822745
 30
0.0
 11
3246.137661562335
 21
2864.998454822745
 31
0.0
  0
LINE
  5
2476
330
1F
100
AcDbEntity
  8
ANCON-BOLT
  6
Continuous
100
AcDbLine
 10
3246.137661562335
 20
2864.998454822745
 30
0.0
 11
3246.137661562335
 21
2884.998454822745
 31
0.0
  0
LINE
  5
2477
330
1F
100
AcDbEntity
  8
ANCON-BOLT
  6
Continuous
100
AcDbLine
 10
3246.137661562335
 20
2884.998454822745
 30
0.0
 11
3078.637661562335
 21
2884.998454822745
 31
0.0
  0
LINE
  5
2478
330
1F
100
AcDbEntity
  8
ANCON-BOLT
  6
Continuous
100
AcDbLine
 10
3246.137661562335
 20
2884.698454822745
 30
0.0
 11
3248.637661562336
 21
2884.698454822745
 31
0.0
  0
LINE
  5
2479
330
1F
100
AcDbEntity
  8
ANCON-BOLT
  6
Continuous
100
AcDbLine
 10
3248.637661562336
 20
2884.698454822745
 30
0.0
 11
3248.637661562336
 21
2865.298454822744
 31
0.0
  0
LINE
  5
247A
330
1F
100
AcDbEntity
  8
ANCON-BOLT
  6
Continuous
100
AcDbLine
 10
3248.637661562336
 20
2865.298454822744
 30
0.0
 11
3246.137661562335
 21
2865.298454822744
 31
0.0
  0
ARC
  5
247B
330
1F
100
AcDbEntity
  8
ANCON-BOLT
  6
Continuous
100
AcDbCircle
 10
3078.637661562335
 20
2874.998454822744
 30
0.0
 40
10.0
100
AcDbArc
 50
270.0
 51
90.0
  0
LINE
  5
247C
330
1F
100
AcDbEntity
  8
ANCON-BOLT
  6
Continuous
100
AcDbLine
 10
3246.137661562335
 20
2864.998454822745
 30
0.0
 11
3246.137661562335
 21
2884.998454822745
 31
0.0
  0
LINE
  5
247D
330
1F
100
AcDbEntity
  8
ANCON-BOLT
  6
Continuous
100
AcDbLine
 10
3246.137661562335
 20
2883.098454822745
 30
0.0
 11
3084.501960326893
 21
2883.098454822745
 31
0.0
  0
LINE
  5
247E
330
1F
100
AcDbEntity
  8
ANCON-BOLT
  6
Continuous
100
AcDbLine
 10
3078.637661562335
 20
2884.998454822745
 30
0.0
 11
3078.637661562335
 21
2864.998454822745
 31
0.0
  0
LINE
  5
247F
330
1F
100
AcDbEntity
  8
ANCON-BOLT
  6
Continuous
100
AcDbLine
 10
3246.137661562335
 20
2866.898454822745
 30
0.0
 11
3084.501960326893
 21
2866.898454822745
 31
0.0
  0
LINE
  5
2480
330
1F
100
AcDbEntity
  8
ANCON-BOLT
  6
Continuous
100
AcDbLine
 10
3248.637661562336
 20
2874.998454822744
 30
0.0
 11
3248.637661562336
 21
2884.998454822745
 31
0.0
  0
LINE
  5
2481
330
1F
100
AcDbEntity
  8
ANCON-BOLT
  6
Continuous
100
AcDbLine
 10
3248.637661562336
 20
2884.998454822745
 30
0.0
 11
3313.637661382335
 21
2884.998454822745
 31
0.0
  0
LINE
  5
248A
330
1F
100
AcDbEntity
  8
ANCON-BOLT
  6
Continuous
100
AcDbLine
 10
3313.637661382335
 20
2864.998454822745
 30
0.0
 11
3248.637661562336
 21
2864.998454822745
 31
0.0
  0
LINE
  5
248B
330
1F
100
AcDbEntity
  8
ANCON-BOLT
  6
Continuous
100
AcDbLine
 10
3248.637661562336
 20
2864.998454822745
 30
0.0
 11
3248.637661562336
 21
2874.998454822744
 31
0.0
  0
LINE
  5
248C
330
1F
100
AcDbEntity
  8
ANCON-BOLT
  6
Continuous
100
AcDbLine
 10
3248.637661562336
 20
2883.098454822745
 30
0.0
 11
3313.637661382335
 21
2883.098454822745
 31
0.0
  0
LINE
  5
248D
330
1F
100
AcDbEntity
  8
ANCON-BOLT
  6
Continuous
100
AcDbLine
 10
3313.637661382335
 20
2866.898454822745
 30
0.0
 11
3248.637661562336
 21
2866.898454822745
 31
0.0
  0
LINE
  5
248E
330
1F
100
AcDbEntity
  8
ANCON-BOLT
  6
Continuous
100
AcDbLine
 10
3313.637661562335
 20
2893.498454822744
 30
0.0
 11
3313.637661562335
 21
2856.498454822745
 31
0.0
  0
LINE
  5
248F
330
1F
100
AcDbEntity
  8
ANCON-BOLT
  6
Continuous
100
AcDbLine
 10
3316.637661562335
 20
2893.498454822744
 30
0.0
 11
3313.637661562335
 21
2893.498454822744
 31
0.0
  0
LINE
  5
2490
330
1F
100
AcDbEntity
  8
ANCON-BOLT
  6
Continuous
100
AcDbLine
 10
3313.637661562335
 20
2856.498454822745
 30
0.0
 11
3316.637661562335
 21
2856.498454822745
 31
0.0
  0
LINE
  5
2491
330
1F
100
AcDbEntity
  8
ANCON-BOLT
  6
Continuous
100
AcDbLine
 10
3316.637661562335
 20
2889.998457708385
 30
0.0
 11
3316.637661562335
 21
2893.498454822744
 31
0.0
  0
LINE
  5
2492
330
1F
100
AcDbEntity
  8
ANCON-BOLT
  6
Continuous
100
AcDbLine
 10
3316.637661562335
 20
2856.498454822745
 30
0.0
 11
3316.637661562335
 21
2859.998451937103
 31
0.0
  0
LINE
  5
2493
330
1F
100
AcDbEntity
  8
ANCON-BOLT
  6
Continuous
100
AcDbLine
 10
3313.637661562335
 20
2864.498454822745
 30
0.0
 11
3316.637660762335
 21
2864.498454822745
 31
0.0
  0
LINE
  5
2494
330
1F
100
AcDbEntity
  8
ANCON-BOLT
  6
Continuous
100
AcDbLine
 10
3316.637660762335
 20
2885.498454822744
 30
0.0
 11
3313.637661562335
 21
2885.498454822744
 31
0.0
  0
LINE
  5
2495
330
1F
100
AcDbEntity
  8
ANCON-BOLT
  6
Continuous
100
AcDbLine
 10
3331.618638337214
 20
2891.763454822744
 30
0.0
 11
3317.656684787454
 21
2891.763454822744
 31
0.0
  0
LINE
  5
2496
330
1F
100
AcDbEntity
  8
ANCON-BOLT
  6
Continuous
100
AcDbLine
 10
3317.656684787454
 20
2891.763454822744
 30
0.0
 11
3316.637661562335
 21
2889.998454822745
 31
0.0
  0
LINE
  5
2497
330
1F
100
AcDbEntity
  8
ANCON-BOLT
  6
Continuous
100
AcDbLine
 10
3316.637661562335
 20
2889.998454822745
 30
0.0
 11
3316.637661562335
 21
2859.998454822745
 31
0.0
  0
LINE
  5
2498
330
1F
100
AcDbEntity
  8
ANCON-BOLT
  6
Continuous
100
AcDbLine
 10
3316.637661562335
 20
2859.998454822745
 30
0.0
 11
3317.656684787454
 21
2858.233454822745
 31
0.0
  0
LINE
  5
2499
330
1F
100
AcDbEntity
  8
ANCON-BOLT
  6
Continuous
100
AcDbLine
 10
3317.656684787454
 20
2858.233454822745
 30
0.0
 11
3331.618638337214
 21
2858.233454822745
 31
0.0
  0
LINE
  5
249A
330
1F
100
AcDbEntity
  8
ANCON-BOLT
  6
Continuous
100
AcDbLine
 10
3331.618638337214
 20
2866.615954822744
 30
0.0
 11
3317.656684787454
 21
2866.615954822744
 31
0.0
  0
LINE
  5
249B
330
1F
100
AcDbEntity
  8
ANCON-BOLT
  6
Continuous
100
AcDbLine
 10
3331.618638337214
 20
2883.380954822744
 30
0.0
 11
3317.656684787454
 21
2883.380954822744
 31
0.0
  0
ARC
  5
249C
330
1F
100
AcDbEntity
  8
ANCON-BOLT
  6
Continuous
100
AcDbCircle
 10
3325.76649417243
 20
2887.572204822745
 30
0.0
 40
9.128832610094844
100
AcDbArc
 50
152.6695187941984
 51
207.3304812058013
  0
ARC
  5
249D
330
1F
100
AcDbEntity
  8
ANCON-BOLT
  6
Continuous
100
AcDbCircle
 10
3351.624457165033
 20
2874.998454822744
 30
0.0
 40
34.98679560269994
100
AcDbArc
 50
166.137633887286
 51
193.8623661127138
  0
ARC
  5
249E
330
1F
100
AcDbEntity
  8
ANCON-BOLT
  6
Continuous
100
AcDbCircle
 10
3325.76649417243
 20
2862.424704822744
 30
0.0
 40
9.128832610094844
100
AcDbArc
 50
152.6695187941984
 51
207.3304812058013
  0
ARC
  5
249F
330
1F
100
AcDbEntity
  8
ANCON-BOLT
  6
Continuous
100
AcDbCircle
 10
3323.50882895224
 20
2862.424704822744
 30
0.0
 40
9.128832610094866
100
AcDbArc
 50
332.6695187941986
 51
27.33048120580142
  0
ARC
  5
24A0
330
1F
100
AcDbEntity
  8
ANCON-BOLT
  6
Continuous
100
AcDbCircle
 10
3297.650865959635
 20
2874.998454822744
 30
0.0
 40
34.98679560270007
100
AcDbArc
 50
346.1376338872862
 51
13.86236611271381
  0
ARC
  5
24A1
330
1F
100
AcDbEntity
  8
ANCON-BOLT
  6
Continuous
100
AcDbCircle
 10
3323.50882895224
 20
2887.572204822745
 30
0.0
 40
9.128832610094866
100
AcDbArc
 50
332.6695187941986
 51
27.33048120580142
  0
LINE
  5
24A2
330
1F
100
AcDbEntity
  8
ANCON-BOLT
  6
Continuous
100
AcDbLine
 10
3331.618638337214
 20
2891.763454822744
 30
0.0
 11
3332.637661562333
 21
2889.998454822745
 31
0.0
  0
LINE
  5
24A3
330
1F
100
AcDbEntity
  8
ANCON-BOLT
  6
Continuous
100
AcDbLine
 10
3332.637661562333
 20
2889.998454822745
 30
0.0
 11
3332.637661562333
 21
2859.998454822745
 31
0.0
  0
LINE
  5
24A4
330
1F
100
AcDbEntity
  8
ANCON-BOLT
  6
Continuous
100
AcDbLine
 10
3332.637661562333
 20
2859.998454822745
 30
0.0
 11
3331.618638337214
 21
2858.233454822745
 31
0.0
  0
LINE
  5
24A5
330
1F
100
AcDbEntity
  8
GRID
100
AcDbLine
 10
3338.637661562335
 20
2881.998454822744
 30
0.0
 11
3338.637661562334
 21
2867.998454822744
 31
0.0
  0
LINE
  5
24A6
330
1F
100
AcDbEntity
  8
GRID
100
AcDbLine
 10
3332.637661562333
 20
2884.998454822745
 30
0.0
 11
3335.637661562333
 21
2884.998454822744
 31
0.0
  0
LINE
  5
24A7
330
1F
100
AcDbEntity
  8
GRID
100
AcDbLine
 10
3332.637661562333
 20
2864.998454822745
 30
0.0
 11
3335.637661562333
 21
2864.998454822745
 31
0.0
  0
LINE
  5
24A8
330
1F
100
AcDbEntity
  8
GRID
100
AcDbLine
 10
3335.637661562333
 20
2884.998454822744
 30
0.0
 11
3335.637661562332
 21
2864.998454822744
 31
0.0
  0
LINE
  5
24A9
330
1F
100
AcDbEntity
  8
GRID
100
AcDbLine
 10
3335.637661562332
 20
2864.998454822744
 30
0.0
 11
3338.637661562334
 21
2867.998454822744
 31
0.0
  0
LINE
  5
24AA
330
1F
100
AcDbEntity
  8
GRID
100
AcDbLine
 10
3335.637661562332
 20
2884.998454822745
 30
0.0
 11
3338.637661562334
 21
2881.998454822745
 31
0.0
  0
LINE
  5
24AB
330
1F
100
AcDbEntity
  8
GRID
100
AcDbLine
 10
3332.637661562333
 20
2883.098454822745
 30
0.0
 11
3335.637661562333
 21
2883.098454822744
 31
0.0
  0
LINE
  5
24AC
330
1F
100
AcDbEntity
  8
GRID
100
AcDbLine
 10
3332.637661562333
 20
2866.898454822745
 30
0.0
 11
3335.637661562333
 21
2866.898454822745
 31
0.0
  0
TEXT
  5
24AD
330
1F
100
AcDbEntity
  8
ANCON-TEXT
100
AcDbText
 10
3073.828678378788
 20
2816.192394479915
 30
0.0
 40
9.0
  1
MIN. EDGE : 210mm
  7
ROMANS
100
AcDbText
  0
TEXT
  5
24AE
330
1F
100
AcDbEntity
  8
ANCON-TEXT
100
AcDbText
 10
3073.828678378788
 20
2830.763823051342
 30
0.0
 40
9.0
  1
ANCON M20 RA BOLT
  7
ROMANS
100
AcDbText
  0
VIEWPORT
  5
2E5
330
1B
100
AcDbEntity
 67
     1
  8
0
100
AcDbViewport
 10
102.7210910825165
 20
146.7105081435732
 30
0.0
 40
366.8958716402523
 41
294.4564519460723
 68
     1
 69
     1
 12
102.7210910825165
 22
146.7105081435732
 13
0.0
 23
0.0
 14
0.5
 24
0.5
 15
0.5
 25
0.5
 16
0.0
 26
0.0
 36
1.0
 17
0.0
 27
0.0
 37
0.0
 42
50.0
 43
0.0
 44
0.0
 45
294.4564519460723
 50
0.0
 51
0.0
 72
   100
 90
    32800
  1

281
     0
 71
     1
 74
     0
110
0.0
120
0.0
130
0.0
111
1.0
121
0.0
131
0.0
112
0.0
122
1.0
132
0.0
 79
     0
146
0.0
  0
INSERT
  5
15F9
330
1B
100
AcDbEntity
 67
     1
  8
DDIMS
100
AcDbBlockReference
 66
     1
  2
A4REV
 10
197.6550712950588
 20
53.24001759701832
 30
0.0
  0
ATTRIB
  5
15FA
330
15F9
100
AcDbEntity
 67
     1
  8
A4 SHEET
 62
     6
100
AcDbText
 10
96.45243022589143
 20
54.87160330931988
 30
0.0
 40
1.5
  1

  7
ROMANS
 72
     1
 11
96.45243022589143
 21
54.87160330931988
 31
0.0
100
AcDbAttribute
  2
INITIALS
 70
     0
  0
ATTRIB
  5
15FB
330
15F9
100
AcDbEntity
 67
     1
  8
A4 SHEET
 62
     6
100
AcDbText
 10
106.5758099023362
 20
54.87160330931988
 30
0.0
 40
1.5
  1

  7
ROMANS
 72
     1
 11
106.5758099023362
 21
54.87160330931988
 31
0.0
100
AcDbAttribute
  2
DATE
 70
     0
  0
ATTRIB
  5
15FC
330
15F9
100
AcDbEntity
 67
     1
  8
A4 SHEET
 62
     6
100
AcDbText
 10
113.9132283400495
 20
54.87160330931988
 30
0.0
 40
1.5
  1
ISSUED FOR APPROVAL
  7
ROMANS
100
AcDbAttribute
  2
REV-NOTE
 70
     0
  0
ATTRIB
  5
15FD
330
15F9
100
AcDbEntity
 67
     1
  8
A4 SHEET
 62
     6
100
AcDbText
 10
190.4691389928009
 20
54.87160330931988
 30
0.0
 40
1.5
  1
-
  7
ROMANS
 72
     1
 11
191.3977104213724
 21
54.87160330931988
 31
0.0
100
AcDbAttribute
  2
LETTER
 70
     0
  0
SEQEND
  5
15FE
330
15F9
100
AcDbEntity
 67
     1
  8
DDIMS
  0
INSERT
  5
169D
330
1B
100
AcDbEntity
 67
     1
  8
DDIMS
100
AcDbBlockReference
  2
A4
 10
0.0
 20
0.0
 30
0.0
  0
INSERT
  5
1733
330
1B
100
AcDbEntity
 67
     1
  8
DDIMS
100
AcDbBlockReference
 66
     1
  2
A4 sheet
 10
0.0
 20
0.0
 30
0.0
  0
ATTRIB
  5
1735
330
1733
100
AcDbEntity
 67
     1
  8
A4 SHEET
100
AcDbText
 10
31.93067360090935
 20
6.831721821908998
 30
0.0
 40
3.0
  1

  7
ROMANS
100
AcDbAttribute
  2
DELIVERY
 70
     0
  0
ATTRIB
  5
1736
330
1733
100
AcDbEntity
 67
     1
  8
A4 SHEET
100
AcDbText
 10
31.93067360090935
 20
31.99588333299775
 30
0.0
 40
3.0
  1

  7
ROMANS
100
AcDbAttribute
  2
PROJECT_NO
 70
     0
  0
ATTRIB
  5
1737
330
1733
100
AcDbEntity
 67
     1
  8
A4 SHEET
100
AcDbText
 10
8.290040479787815
 20
44.8504035457095
 30
0.0
 40
3.0
  1
CK
  7
ROMANS
100
AcDbAttribute
  2
DRAWN
 70
     0
  0
ATTRIB
  5
1738
330
1733
100
AcDbEntity
 67
     1
  8
A4 SHEET
100
AcDbText
 10
8.290040479787815
 20
31.99588333299775
 30
0.0
 40
3.0
  1

  7
ROMANS
100
AcDbAttribute
  2
CHECKED
 70
     0
  0
ATTRIB
  5
1739
330
1733
100
AcDbEntity
 67
     1
  8
A4 SHEET
100
AcDbText
 10
8.290040479787815
 20
19.2098972668673
 30
0.0
 40
3.0
  1
1:5
  7
ROMANS
100
AcDbAttribute
  2
SCALE
 70
     0
  0
ATTRIB
  5
173A
330
1733
100
AcDbEntity
 67
     1
  8
A4 SHEET
100
AcDbText
 10
8.290040479787815
 20
6.831721821908995
 30
0.0
 40
3.0
  1
04/01/00
  7
ROMANS
100
AcDbAttribute
  2
DATE
 70
     0
  0
ATTRIB
  5
173B
330
1733
100
AcDbEntity
 67
     1
  8
A4 SHEET
100
AcDbText
 10
55.92636162597325
 20
42.81743759049766
 30
0.0
 40
3.0
  1

  7
ROMANS
100
AcDbAttribute
  2
CLIENT
 70
     0
  0
ATTRIB
  5
173C
330
1733
100
AcDbEntity
 67
     1
  8
A4 SHEET
100
AcDbText
 10
55.92636162597325
 20
28.03537398364563
 30
0.0
 40
3.0
  1

  7
ROMANS
100
AcDbAttribute
  2
TITLE_1
 70
     0
  0
ATTRIB
  5
173D
330
1733
100
AcDbEntity
 67
     1
  8
A4 SHEET
100
AcDbText
 10
55.92636162597325
 20
23.14725924241181
 30
0.0
 40
3.0
  1

  7
ROMANS
100
AcDbAttribute
  2
TITLE_2
 70
     0
  0
ATTRIB
  5
173E
330
1733
100
AcDbEntity
 67
     1
  8
A4 SHEET
100
AcDbText
 10
55.92636162597325
 20
18.16265549404074
 30
0.0
 40
3.0
  1

  7
ROMANS
100
AcDbAttribute
  2
TITLE_3
 70
     0
  0
ATTRIB
  5
173F
330
1733
100
AcDbEntity
 67
     1
  8
A4 SHEET
100
AcDbText
 10
55.92636162597325
 20
13.17805174566968
 30
0.0
 40
3.0
  1

  7
ROMANS
100
AcDbAttribute
  2
TITLE_4
 70
     0
  0
ATTRIB
  5
1740
330
1733
100
AcDbEntity
 67
     1
  8
A4 SHEET
100
AcDbText
 10
149.8320303694279
 20
6.270319131677898
 30
0.0
 40
3.0
  1

  7
ROMANS
100
AcDbAttribute
  2
DWG_NO
 70
     0
  0
SEQEND
  5
1734
330
1733
100
AcDbEntity
 67
     1
  8
DDIMS
  0
ENDSEC
  0
SECTION
  2
OBJECTS
  0
DICTIONARY
  5
C
330
0
100
AcDbDictionary
281
     1
  3
ACAD_GROUP
350
D
  3
ACAD_LAYOUT
350
1A
  3
ACAD_MLINESTYLE
350
17
  3
ACAD_PLOTSETTINGS
350
19
  3
ACAD_PLOTSTYLENAME
350
E
  3
AcadDim
350
91D
  3
ACDBHEADERROUNDTRIPXREC
350
251F
  3
AcDbVariableDictionary
350
AB7
  0
DICTIONARY
  5
D
102
{ACAD_REACTORS
330
C
102
}
330
C
100
AcDbDictionary
281
     1
  0
DICTIONARY
  5
1A
102
{ACAD_REACTORS
330
C
102
}
330
C
100
AcDbDictionary
281
     1
  3
Layout1
350
1E
  3
Model
350
22
  0
DICTIONARY
  5
17
102
{ACAD_REACTORS
330
C
102
}
330
C
100
AcDbDictionary
281
     1
  3
Standard
350
18
  0
DICTIONARY
  5
19
102
{ACAD_REACTORS
330
C
102
}
330
C
100
AcDbDictionary
281
     1
  0
ACDBDICTIONARYWDFLT
  5
E
102
{ACAD_REACTORS
330
C
102
}
330
C
100
AcDbDictionary
281
     1
  3
Normal
350
F
100
AcDbDictionaryWithDefault
340
F
  0
XRECORD
  5
91D
102
{ACAD_REACTORS
330
C
102
}
330
C
100
AcDbXrecord
280
     1
 90
   990106
  3

 60
     0
 61
     0
 62
     1
 63
     3
 64
     0
 65
     0
 66
     0
 67
     3
 68
     1
 69
     0
 70
     0
 71
     0
 72
     0
 40
0.0
170
     0
340
91C
  0
DICTIONARY
  5
251F
102
{ACAD_REACTORS
330
C
102
}
330
C
100
AcDbDictionary
281
     1
  3
CEPSNTYPE
350
2529
  3
DIMSTYLEDATA
350
252D
  3
FINGERPRINTGUID
350
252A
  3
HYPERLINKBASE
350
2522
  3
INSUNITS
350
2528
  3
LAYOUTDICT
350
2524
  3
LWETCUNION
350
2527
  3
PLOTSETDICT
350
2525
  3
PLOTSTYLNAMDICT
350
2526
  3
PSVPSCALE
350
252C
  3
PUCSBASE
350
2530
  3
PUCSORGBACK
350
2536
  3
PUCSORGBOTTOM
350
2532
  3
PUCSORGFRONT
350
2535
  3
PUCSORGLEFT
350
2533
  3
PUCSORGRIGHT
350
2534
  3
PUCSORGTOP
350
2531
  3
PUCSORTHOREF
350
252E
  3
PUCSORTHOVIEW
350
252F
  3
STYLESHEET
350
2523
  3
TSTACKALIGN
350
2520
  3
TSTACKSIZE
350
2521
  3
UCSBASE
350
2539
  3
UCSORGBACK
350
253F
  3
UCSORGBOTTOM
350
253B
  3
UCSORGFRONT
350
253E
  3
UCSORGLEFT
350
253C
  3
UCSORGRIGHT
350
253D
  3
UCSORGTOP
350
253A
  3
UCSORTHOREF
350
2537
  3
UCSORTHOVIEW
350
2538
  3
VERSIONGUID
350
252B
  0
DICTIONARY
  5
AB7
102
{ACAD_REACTORS
330
C
102
}
330
C
100
AcDbDictionary
281
     1
  3
DIMASSOC
350
251D
  3
SORTENTS
350
AB8
  0
LAYOUT
  5
1E
102
{ACAD_REACTORS
330
1A
102
}
330
1A
100
AcDbPlotSettings
  1

  2
A4.pc3
  4
A4
  6

 40
6.720416545867919
 41
6.720423221588133
 42
7.694076538085937
 43
4.011077880859375
 44
209.9733276367186
 45
296.9683227539062
 46
2.839999999999998
 47
1.58
 48
0.0
 49
0.0
140
0.0
141
0.0
142
1.0
143
1.0
 70
   692
 72
     1
 73
     0
 74
     1
  7
Std pen settings.ctb
 75
    16
147
1.0
148
-7.775434128976201
149
-0.5703992853406135
100
AcDbLayout
  1
Layout1
 70
     0
 71
     1
 10
-1.784982416891717
 20
-7.730023936247521
 11
208.1883452198269
 21
289.2382988176586
 12
0.0
 22
0.0
 32
0.0
 14
7.777105839157954
 24
0.5792682657111623
 34
0.0
 15
197.6550712950588
 25
283.6213344614823
 35
0.0
146
0.0
 13
0.0
 23
0.0
 33
0.0
 16
1.0
 26
0.0
 36
0.0
 17
0.0
 27
1.0
 37
0.0
 76
     0
330
1B
331
2E5
  0
LAYOUT
  5
22
102
{ACAD_REACTORS
330
1A
102
}
330
1A
100
AcDbPlotSettings
  1

  2
Xerox 2 plain A3
  4

  6

 40
0.0
 41
0.0
 42
0.0
 43
0.0
 44
0.0
 45
0.0
 46
0.0
 47
0.0
 48
0.0
 49
0.0
140
0.0
141
0.0
142
1.0
143
1.0
 70
  1712
 72
     0
 73
     0
 74
     0
  7
Std pen settings.ctb
 75
     0
147
1.0
148
0.0
149
0.0
100
AcDbLayout
  1
Model
 70
     1
 71
     0
 10
0.0
 20
0.0
 11
12.0
 21
9.0
 12
0.0
 22
0.0
 32
0.0
 14
0.0
 24
0.0
 34
0.0
 15
0.0
 25
0.0
 35
0.0
146
0.0
 13
0.0
 23
0.0
 33
0.0
 16
1.0
 26
0.0
 36
0.0
 17
0.0
 27
1.0
 37
0.0
 76
     0
330
1F
  0
MLINESTYLE
  5
18
102
{ACAD_REACTORS
330
17
102
}
330
17
100
AcDbMlineStyle
  2
STANDARD
 70
     0
  3

 62
   256
 51
90.0
 52
90.0
 71
     2
 49
0.5
 62
   256
  6
BYLAYER
 49
-0.5
 62
   256
  6
BYLAYER
  0
ACDBPLACEHOLDER
  5
F
102
{ACAD_REACTORS
330
E
102
}
330
E
  0
XRECORD
  5
2529
102
{ACAD_REACTORS
330
251F
102
}
330
251F
100
AcDbXrecord
280
     1
 90
        0
  0
XRECORD
  5
252D
102
{ACAD_REACTORS
330
251F
102
}
330
251F
100
AcDbXrecord
280
     1
1000
DSTYLE
1002
{
1070
   279
 70
     2
1002
}
  0
XRECORD
  5
252A
102
{ACAD_REACTORS
330
251F
102
}
330
251F
100
AcDbXrecord
280
     1
  1
{0F8F7604-0E20-11D5-8D50-00105A3DEFE9}
  0
XRECORD
  5
2522
102
{ACAD_REACTORS
330
251F
102
}
330
251F
100
AcDbXrecord
280
     1
  1

  0
XRECORD
  5
2528
102
{ACAD_REACTORS
330
251F
102
}
330
251F
100
AcDbXrecord
280
     1
 90
        1
  0
XRECORD
  5
2524
102
{ACAD_REACTORS
330
251F
102
}
330
251F
100
AcDbXrecord
280
     1
340
1A
  0
XRECORD
  5
2527
102
{ACAD_REACTORS
330
251F
102
}
330
251F
100
AcDbXrecord
280
     1
 90
    10781
  0
XRECORD
  5
2525
102
{ACAD_REACTORS
330
251F
102
}
330
251F
100
AcDbXrecord
280
     1
340
19
  0
XRECORD
  5
2526
102
{ACAD_REACTORS
330
251F
102
}
330
251F
100
AcDbXrecord
280
     1
340
E
  0
XRECORD
  5
252C
102
{ACAD_REACTORS
330
251F
102
}
330
251F
100
AcDbXrecord
280
     1
 40
0.0
  0
XRECORD
  5
2530
102
{ACAD_REACTORS
330
251F
102
}
330
251F
100
AcDbXrecord
280
     1
340
0
  0
XRECORD
  5
2536
102
{ACAD_REACTORS
330
251F
102
}
330
251F
100
AcDbXrecord
280
     1
 10
0.0
 20
0.0
 30
0.0
  0
XRECORD
  5
2532
102
{ACAD_REACTORS
330
251F
102
}
330
251F
100
AcDbXrecord
280
     1
 10
0.0
 20
0.0
 30
0.0
  0
XRECORD
  5
2535
102
{ACAD_REACTORS
330
251F
102
}
330
251F
100
AcDbXrecord
280
     1
 10
0.0
 20
0.0
 30
0.0
  0
XRECORD
  5
2533
102
{ACAD_REACTORS
330
251F
102
}
330
251F
100
AcDbXrecord
280
     1
 10
0.0
 20
0.0
 30
0.0
  0
XRECORD
  5
2534
102
{ACAD_REACTORS
330
251F
102
}
330
251F
100
AcDbXrecord
280
     1
 10
0.0
 20
0.0
 30
0.0
  0
XRECORD
  5
2531
102
{ACAD_REACTORS
330
251F
102
}
330
251F
100
AcDbXrecord
280
     1
 10
0.0
 20
0.0
 30
0.0
  0
XRECORD
  5
252E
102
{ACAD_REACTORS
330
251F
102
}
330
251F
100
AcDbXrecord
280
     1
340
0
  0
XRECORD
  5
252F
102
{ACAD_REACTORS
330
251F
102
}
330
251F
100
AcDbXrecord
280
     1
 70
     0
  0
XRECORD
  5
2523
102
{ACAD_REACTORS
330
251F
102
}
330
251F
100
AcDbXrecord
280
     1
  1

  0
XRECORD
  5
2520
102
{ACAD_REACTORS
330
251F
102
}
330
251F
100
AcDbXrecord
280
     1
 90
        1
  0
XRECORD
  5
2521
102
{ACAD_REACTORS
330
251F
102
}
330
251F
100
AcDbXrecord
280
     1
 90
       70
  0
XRECORD
  5
2539
102
{ACAD_REACTORS
330
251F
102
}
330
251F
100
AcDbXrecord
280
     1
340
0
  0
XRECORD
  5
253F
102
{ACAD_REACTORS
330
251F
102
}
330
251F
100
AcDbXrecord
280
     1
 10
0.0
 20
0.0
 30
0.0
  0
XRECORD
  5
253B
102
{ACAD_REACTORS
330
251F
102
}
330
251F
100
AcDbXrecord
280
     1
 10
0.0
 20
0.0
 30
0.0
  0
XRECORD
  5
253E
102
{ACAD_REACTORS
330
251F
102
}
330
251F
100
AcDbXrecord
280
     1
 10
0.0
 20
0.0
 30
0.0
  0
XRECORD
  5
253C
102
{ACAD_REACTORS
330
251F
102
}
330
251F
100
AcDbXrecord
280
     1
 10
0.0
 20
0.0
 30
0.0
  0
XRECORD
  5
253D
102
{ACAD_REACTORS
330
251F
102
}
330
251F
100
AcDbXrecord
280
     1
 10
0.0
 20
0.0
 30
0.0
  0
XRECORD
  5
253A
102
{ACAD_REACTORS
330
251F
102
}
330
251F
100
AcDbXrecord
280
     1
 10
0.0
 20
0.0
 30
0.0
  0
XRECORD
  5
2537
102
{ACAD_REACTORS
330
251F
102
}
330
251F
100
AcDbXrecord
280
     1
340
0
  0
XRECORD
  5
2538
102
{ACAD_REACTORS
330
251F
102
}
330
251F
100
AcDbXrecord
280
     1
 70
     0
  0
XRECORD
  5
252B
102
{ACAD_REACTORS
330
251F
102
}
330
251F
100
AcDbXrecord
280
     1
  1
{2016BF32-4C64-44CA-9F6A-31D418DF4CF5}
  0
DICTIONARYVAR
  5
251D
102
{ACAD_REACTORS
330
AB7
102
}
330
AB7
100
DictionaryVariables
280
     0
  1
1
  0
DICTIONARYVAR
  5
AB8
102
{ACAD_REACTORS
330
AB7
102
}
330
AB7
100
DictionaryVariables
280
     0
  1
96
  0
ENDSEC
  0
EOF
