  0
SECTION
  2
HEADER
  9
$ACADVER
  1
AC1015
  9
$ACADMAINTVER
 70
    10
  9
$DWGCODEPAGE
  3
ANSI_1252
  9
$INSBASE
 10
0.0
 20
0.0
 30
0.0
  9
$EXTMIN
 10
2530.19601043226
 20
154.9001403962045
 30
0.0
  9
$EXTMAX
 10
2665.474472707642
 20
274.9984783162986
 30
0.0
  9
$LIMMIN
 10
0.0
 20
0.0
  9
$LIMMAX
 10
12.0
 20
9.0
  9
$ORTHOMODE
 70
     0
  9
$REGENMODE
 70
     1
  9
$FILLMODE
 70
     1
  9
$QTEXTMODE
 70
     0
  9
$MIRRTEXT
 70
     0
  9
$LTSCALE
 40
1.0
  9
$ATTMODE
 70
     1
  9
$TEXTSIZE
 40
40.0
  9
$TRACEWID
 40
0.05
  9
$TEXTSTYLE
  7
ROMANS
  9
$CLAYER
  8
DIMS
  9
$CELTYPE
  6
BYLAYER
  9
$CECOLOR
 62
   256
  9
$CELTSCALE
 40
1.0
  9
$DISPSILH
 70
     0
  9
$DIMSCALE
 40
1.0
  9
$DIMASZ
 40
2.0
  9
$DIMEXO
 40
4.5
  9
$DIMDLI
 40
0.0
  9
$DIMRND
 40
0.01
  9
$DIMDLE
 40
0.0
  9
$DIMEXE
 40
1.5
  9
$DIMTP
 40
0.0
  9
$DIMTM
 40
0.0
  9
$DIMTXT
 40
1.8
  9
$DIMCEN
 40
0.0
  9
$DIMTSZ
 40
0.0
  9
$DIMTOL
 70
     0
  9
$DIMLIM
 70
     0
  9
$DIMTIH
 70
     0
  9
$DIMTOH
 70
     0
  9
$DIMSE1
 70
     0
  9
$DIMSE2
 70
     0
  9
$DIMTAD
 70
     1
  9
$DIMZIN
 70
    12
  9
$DIMBLK
  1

  9
$DIMASO
 70
     1
  9
$DIMSHO
 70
     1
  9
$DIMPOST
  1

  9
$DIMAPOST
  1

  9
$DIMALT
 70
     0
  9
$DIMALTD
 70
     2
  9
$DIMALTF
 40
25.4
  9
$DIMLFAC
 40
1.0
  9
$DIMTOFL
 70
     0
  9
$DIMTVP
 40
0.0
  9
$DIMTIX
 70
     0
  9
$DIMSOXD
 70
     0
  9
$DIMSAH
 70
     0
  9
$DIMBLK1
  1

  9
$DIMBLK2
  1

  9
$DIMSTYLE
  2
1-1
  9
$DIMCLRD
 70
     0
  9
$DIMCLRE
 70
     0
  9
$DIMCLRT
 70
     0
  9
$DIMTFAC
 40
1.25
  9
$DIMGAP
 40
1.0
  9
$DIMJUST
 70
     0
  9
$DIMSD1
 70
     0
  9
$DIMSD2
 70
     0
  9
$DIMTOLJ
 70
     1
  9
$DIMTZIN
 70
    12
  9
$DIMALTZ
 70
    12
  9
$DIMALTTZ
 70
    12
  9
$DIMUPT
 70
     0
  9
$DIMDEC
 70
     4
  9
$DIMTDEC
 70
     4
  9
$DIMALTU
 70
     2
  9
$DIMALTTD
 70
     2
  9
$DIMTXSTY
  7
ROMANS
  9
$DIMAUNIT
 70
     0
  9
$DIMADEC
 70
     2
  9
$DIMALTRND
 40
0.0
  9
$DIMAZIN
 70
     0
  9
$DIMDSEP
 70
    46
  9
$DIMATFIT
 70
     3
  9
$DIMFRAC
 70
     0
  9
$DIMLDRBLK
  1

  9
$DIMLUNIT
 70
     2
  9
$DIMLWD
 70
    -2
  9
$DIMLWE
 70
    -2
  9
$DIMTMOVE
 70
     2
  9
$LUNITS
 70
     2
  9
$LUPREC
 70
     4
  9
$SKETCHINC
 40
0.1
  9
$FILLETRAD
 40
0.5
  9
$AUNITS
 70
     0
  9
$AUPREC
 70
     0
  9
$MENU
  1
acad
  9
$ELEVATION
 40
0.0
  9
$PELEVATION
 40
0.0
  9
$THICKNESS
 40
0.0
  9
$LIMCHECK
 70
     0
  9
$CHAMFERA
 40
0.5
  9
$CHAMFERB
 40
0.5
  9
$CHAMFERC
 40
0.0
  9
$CHAMFERD
 40
0.0
  9
$SKPOLY
 70
     0
  9
$TDCREATE
 40
2452202.646556944
  9
$TDUCREATE
 40
2452202.646556944
  9
$TDUPDATE
 40
2453060.721292789
  9
$TDUUPDATE
 40
2453060.721292789
  9
$TDINDWG
 40
1.4295618171
  9
$TDUSRTIMER
 40
1.4295618171
  9
$USRTIMER
 70
     1
  9
$ANGBASE
 50
0.0
  9
$ANGDIR
 70
     0
  9
$PDMODE
 70
     3
  9
$PDSIZE
 40
0.0
  9
$PLINEWID
 40
0.0
  9
$SPLFRAME
 70
     0
  9
$SPLINETYPE
 70
     6
  9
$SPLINESEGS
 70
     8
  9
$HANDSEED
  5
15984
  9
$SURFTAB1
 70
     6
  9
$SURFTAB2
 70
     6
  9
$SURFTYPE
 70
     6
  9
$SURFU
 70
     6
  9
$SURFV
 70
     6
  9
$UCSBASE
  2

  9
$UCSNAME
  2

  9
$UCSORG
 10
0.0
 20
0.0
 30
0.0
  9
$UCSXDIR
 10
1.0
 20
0.0
 30
0.0
  9
$UCSYDIR
 10
0.0
 20
1.0
 30
0.0
  9
$UCSORTHOREF
  2

  9
$UCSORTHOVIEW
 70
     0
  9
$UCSORGTOP
 10
0.0
 20
0.0
 30
0.0
  9
$UCSORGBOTTOM
 10
0.0
 20
0.0
 30
0.0
  9
$UCSORGLEFT
 10
0.0
 20
0.0
 30
0.0
  9
$UCSORGRIGHT
 10
0.0
 20
0.0
 30
0.0
  9
$UCSORGFRONT
 10
0.0
 20
0.0
 30
0.0
  9
$UCSORGBACK
 10
0.0
 20
0.0
 30
0.0
  9
$PUCSBASE
  2

  9
$PUCSNAME
  2

  9
$PUCSORG
 10
0.0
 20
0.0
 30
0.0
  9
$PUCSXDIR
 10
1.0
 20
0.0
 30
0.0
  9
$PUCSYDIR
 10
0.0
 20
1.0
 30
0.0
  9
$PUCSORTHOREF
  2

  9
$PUCSORTHOVIEW
 70
     0
  9
$PUCSORGTOP
 10
0.0
 20
0.0
 30
0.0
  9
$PUCSORGBOTTOM
 10
0.0
 20
0.0
 30
0.0
  9
$PUCSORGLEFT
 10
0.0
 20
0.0
 30
0.0
  9
$PUCSORGRIGHT
 10
0.0
 20
0.0
 30
0.0
  9
$PUCSORGFRONT
 10
0.0
 20
0.0
 30
0.0
  9
$PUCSORGBACK
 10
0.0
 20
0.0
 30
0.0
  9
$USERI1
 70
     0
  9
$USERI2
 70
     0
  9
$USERI3
 70
     0
  9
$USERI4
 70
     0
  9
$USERI5
 70
     0
  9
$USERR1
 40
0.0
  9
$USERR2
 40
0.0
  9
$USERR3
 40
0.0
  9
$USERR4
 40
0.0
  9
$USERR5
 40
0.0
  9
$WORLDVIEW
 70
     1
  9
$SHADEDGE
 70
     3
  9
$SHADEDIF
 70
    70
  9
$TILEMODE
 70
     1
  9
$MAXACTVP
 70
    16
  9
$PINSBASE
 10
0.0
 20
0.0
 30
0.0
  9
$PLIMCHECK
 70
     0
  9
$PEXTMIN
 10
1.129916750539944
 20
0.78675001625001
 30
0.0
  9
$PEXTMAX
 10
10.1692507548595
 20
7.080750146250085
 30
0.0
  9
$PLIMMIN
 10
-0.1979161059762549
 20
-0.1979166691697489
  9
$PLIMMAX
 10
11.49708424966165
 20
8.065416268476351
  9
$UNITMODE
 70
     0
  9
$VISRETAIN
 70
     0
  9
$PLINEGEN
 70
     0
  9
$PSLTSCALE
 70
     1
  9
$TREEDEPTH
 70
  3020
  9
$CMLSTYLE
  2
STANDARD
  9
$CMLJUST
 70
     0
  9
$CMLSCALE
 40
1.0
  9
$PROXYGRAPHICS
 70
     1
  9
$MEASUREMENT
 70
     0
  9
$CELWEIGHT
370
    -1
  9
$ENDCAPS
280
     0
  9
$JOINSTYLE
280
     0
  9
$LWDISPLAY
290
     0
  9
$INSUNITS
 70
     0
  9
$HYPERLINKBASE
  1

  9
$STYLESHEET
  1

  9
$XEDIT
290
     1
  9
$CEPSNTYPE
380
     0
  9
$PSTYLEMODE
290
     1
  9
$FINGERPRINTGUID
  2
{B88EE4EA-09A3-11D6-AAD2-00C04F189418}
  9
$VERSIONGUID
  2
{F636EC74-D3CD-431E-A5A9-347D81508C6D}
  9
$EXTNAMES
290
     1
  9
$PSVPSCALE
 40
0.0
  9
$OLESTARTUP
290
     0
  0
ENDSEC
  0
SECTION
  2
CLASSES
  0
CLASS
  1
DICTIONARYVAR
  2
AcDbDictionaryVar
  3
AutoCAD 2000
 90
        0
280
     0
281
     0
  0
CLASS
  1
LWPOLYLINE
  2
AcDbPolyline
  3
AutoCAD 2000
 90
    32768
280
     0
281
     1
  0
CLASS
  1
IDBUFFER
  2
AcDbIdBuffer
  3
AutoCAD 2000
 90
    32768
280
     0
281
     0
  0
CLASS
  1
ACDBDICTIONARYWDFLT
  2
AcDbDictionaryWithDefault
  3
AutoCAD 2000
 90
        0
280
     0
281
     0
  0
CLASS
  1
ACDBPLACEHOLDER
  2
AcDbPlaceHolder
  3
AutoCAD 2000
 90
        0
280
     0
281
     0
  0
CLASS
  1
LAYOUT
  2
AcDbLayout
  3
AutoCAD 2000
 90
        0
280
     0
281
     0
  0
CLASS
  1
LONG_TRANSACTION
  2
AcDbLongTransaction
  3
AutoCAD 2000
 90
    32768
280
     0
281
     0
  0
CLASS
  1
LWPOLYLINE
  2
AcDbPolyline
  3
AutoCAD 2000
 90
    32768
280
     0
281
     1
  0
CLASS
  1
HATCH
  2
AcDbHatch
  3
AutoCAD 2000
 90
    32768
280
     0
281
     1
  0
CLASS
  1
XRECORD
  2
AcDbXrecord
  3
AutoCAD 2000
 90
    32768
280
     0
281
     0
  0
ENDSEC
  0
SECTION
  2
TABLES
  0
TABLE
  2
VPORT
  5
DCE3
330
0
100
AcDbSymbolTable
 70
     2
  0
VPORT
  5
15962
330
DCE3
100
AcDbSymbolTableRecord
100
AcDbViewportTableRecord
  2
*Active
 70
     0
 10
0.0
 20
0.0
 11
1.0
 21
1.0
 12
2610.340975078348
 22
217.3049581270318
 13
0.0
 23
0.0
 14
0.5
 24
0.5
 15
0.0
 25
0.0
 16
0.0
 26
0.0
 36
1.0
 17
0.0
 27
0.0
 37
0.0
 40
425.9770958482736
 41
1.52338811630847
 42
50.0
 43
0.0
 44
0.0
 50
0.0
 51
0.0
 71
     8
 72
   100
 73
     1
 74
     1
 75
     0
 76
     0
 77
     0
 78
     0
281
     0
 65
     1
110
0.0
120
0.0
130
0.0
111
1.0
121
0.0
131
0.0
112
0.0
122
1.0
132
0.0
 79
     0
146
0.0
  0
ENDTAB
  0
TABLE
  2
LTYPE
  5
DCE0
330
0
100
AcDbSymbolTable
 70
    26
  0
LTYPE
  5
DCEC
330
DCE0
100
AcDbSymbolTableRecord
100
AcDbLinetypeTableRecord
  2
BYBLOCK
 70
     0
  3

 72
    65
 73
     0
 40
0.0
  0
LTYPE
  5
DCED
330
DCE0
100
AcDbSymbolTableRecord
100
AcDbLinetypeTableRecord
  2
BYLAYER
 70
     0
  3

 72
    65
 73
     0
 40
0.0
  0
LTYPE
  5
DCEE
330
DCE0
100
AcDbSymbolTableRecord
100
AcDbLinetypeTableRecord
  2
CONTINUOUS
 70
     0
  3
Solid line
 72
    65
 73
     0
 40
0.0
  0
LTYPE
  5
DD0F
330
DCE0
100
AcDbSymbolTableRecord
100
AcDbLinetypeTableRecord
  2
HIDDEN1_01
 70
     0
  3
__ __ __ __ __ __ __ __ __ __ __ __ __ __ __ __
 72
    65
 73
     2
 40
5.0
 49
3.0
 74
     0
 49
-2.0
 74
     0
  0
ENDTAB
  0
TABLE
  2
LAYER
  5
DCDD
330
0
100
AcDbSymbolTable
 70
    20
  0
LAYER
  5
DCE9
330
DCDD
100
AcDbSymbolTableRecord
100
AcDbLayerTableRecord
  2
0
 70
     0
 62
     7
  6
CONTINUOUS
370
    -3
390
EBBC
  0
LAYER
  5
DD29
330
DCDD
100
AcDbSymbolTableRecord
100
AcDbLayerTableRecord
  2
DIMS
 70
     0
 62
     2
  6
CONTINUOUS
370
    -3
390
EBBC
  0
LAYER
  5
DD33
330
DCDD
100
AcDbSymbolTableRecord
100
AcDbLayerTableRecord
  2
DEFPOINTS
 70
     0
 62
     7
  6
CONTINUOUS
290
     0
370
    -3
390
EBBC
  0
LAYER
  5
EA1A
330
DCDD
100
AcDbSymbolTableRecord
100
AcDbLayerTableRecord
  2
ASHADE
 70
     4
 62
     7
  6
CONTINUOUS
370
    -3
390
EBBC
  0
LAYER
  5
15885
330
DCDD
100
AcDbSymbolTableRecord
100
AcDbLayerTableRecord
  2
Ancontension
 70
     0
 62
     1
  6
CONTINUOUS
370
    -3
390
EBBC
  0
ENDTAB
  0
TABLE
  2
STYLE
  5
DCDE
330
0
100
AcDbSymbolTable
 70
     3
  0
STYLE
  5
DCEA
330
DCDE
100
AcDbSymbolTableRecord
100
AcDbTextStyleTableRecord
  2
STANDARD
 70
     0
 40
0.0
 41
1.0
 50
0.0
 71
     0
 42
0.2
  3
txt
  4

  0
STYLE
  5
DD02
330
DCDE
100
AcDbSymbolTableRecord
100
AcDbTextStyleTableRecord
  2
ROMANS
 70
     0
 40
0.0
 41
1.0
 50
0.0
 71
     0
 42
40.0
  3
romans
  4

  0
ENDTAB
  0
TABLE
  2
VIEW
  5
DCE1
330
0
100
AcDbSymbolTable
 70
     0
  0
ENDTAB
  0
TABLE
  2
UCS
  5
DCE2
330
0
100
AcDbSymbolTable
 70
     0
  0
ENDTAB
  0
TABLE
  2
APPID
  5
DCE4
330
0
100
AcDbSymbolTable
 70
     6
  0
APPID
  5
DCEB
330
DCE4
100
AcDbSymbolTableRecord
100
AcDbRegAppTableRecord
  2
ACAD
 70
     0
  0
APPID
  5
E64D
330
DCE4
100
AcDbSymbolTableRecord
100
AcDbRegAppTableRecord
  2
AVE_FINISH
 70
     0
  0
APPID
  5
EA18
330
DCE4
100
AcDbSymbolTableRecord
100
AcDbRegAppTableRecord
  2
AVE_RENDER
 70
     0
  0
APPID
  5
EA19
330
DCE4
100
AcDbSymbolTableRecord
100
AcDbRegAppTableRecord
  2
AVE_ENTITY_MATERIAL
 70
     0
  0
APPID
  5
EA26
330
DCE4
100
AcDbSymbolTableRecord
100
AcDbRegAppTableRecord
  2
AVE_MATERIAL
 70
     0
  0
APPID
  5
EA27
330
DCE4
100
AcDbSymbolTableRecord
100
AcDbRegAppTableRecord
  2
AVE_GLOBAL
 70
     0
  0
ENDTAB
  0
TABLE
  2
DIMSTYLE
  5
DCE5
330
0
100
AcDbSymbolTable
 70
     8
100
AcDbDimStyleTable
 71
     0
  0
DIMSTYLE
105
DD1C
330
DCE5
100
AcDbSymbolTableRecord
100
AcDbDimStyleTableRecord
  2
1-1
 70
     0
 41
2.0
 42
4.5
 43
0.0
 44
1.5
 45
0.01
 73
     0
 74
     0
 77
     1
 78
    12
140
1.8
141
0.0
146
1.25
147
1.0
179
     2
279
     2
284
    12
285
    12
286
    12
340
DD02
  0
ENDTAB
  0
TABLE
  2
BLOCK_RECORD
  5
DCDC
330
0
100
AcDbSymbolTable
 70
    24
  0
BLOCK_RECORD
  5
DCF2
102
{ACAD_XDICTIONARY
360
1586E
102
}
330
DCDC
100
AcDbSymbolTableRecord
100
AcDbBlockTableRecord
  2
*MODEL_SPACE
340
EBBF
  0
BLOCK_RECORD
  5
10777
102
{ACAD_XDICTIONARY
360
15847
102
}
330
DCDC
100
AcDbSymbolTableRecord
100
AcDbBlockTableRecord
  2
*Paper_Space
340
10778
  0
BLOCK_RECORD
  5
EA1B
330
DCDC
100
AcDbSymbolTableRecord
100
AcDbBlockTableRecord
  2
AVE_RENDER
340
0
102
{BLKREFS
331
EA1E
331
EA1F
331
EA20
331
EA21
331
EA22
331
EA23
331
EA24
331
EA25
102
}
  0
BLOCK_RECORD
  5
EA28
330
DCDC
100
AcDbSymbolTableRecord
100
AcDbBlockTableRecord
  2
AVE_GLOBAL
340
0
102
{BLKREFS
331
EA2B
102
}
  0
ENDTAB
  0
ENDSEC
  0
SECTION
  2
BLOCKS
  0
BLOCK
  5
DD38
330
DCF2
100
AcDbEntity
  8
0
100
AcDbBlockBegin
  2
*MODEL_SPACE
 70
     0
 10
0.0
 20
0.0
 30
0.0
  3
*MODEL_SPACE
  1

  0
ENDBLK
  5
DD39
330
DCF2
100
AcDbEntity
  8
0
100
AcDbBlockEnd
  0
BLOCK
  5
10779
330
10777
100
AcDbEntity
 67
     1
  8
0
100
AcDbBlockBegin
  2
*Paper_Space
 70
     0
 10
0.0
 20
0.0
 30
0.0
  3
*Paper_Space
  1

  0
ENDBLK
  5
1077A
330
10777
100
AcDbEntity
 67
     1
  8
0
100
AcDbBlockEnd
  0
BLOCK
  5
EA1C
330
EA1B
100
AcDbEntity
  8
ASHADE
100
AcDbBlockBegin
  2
AVE_RENDER
 70
     0
 10
0.0
 20
0.0
 30
0.0
  3
AVE_RENDER
  1
AVE_RENDER
  0
ENDBLK
  5
EA1D
330
EA1B
100
AcDbEntity
  8
0
100
AcDbBlockEnd
  0
BLOCK
  5
EA29
330
EA28
100
AcDbEntity
  8
ASHADE
100
AcDbBlockBegin
  2
AVE_GLOBAL
 70
     0
 10
0.0
 20
0.0
 30
0.0
  3
AVE_GLOBAL
  1
AVE_GLOBAL
  0
ENDBLK
  5
EA2A
330
EA28
100
AcDbEntity
  8
0
100
AcDbBlockEnd
  0
ENDSEC
  0
SECTION
  2
ENTITIES
  0
INSERT
  5
EA1E
330
DCF2
100
AcDbEntity
  8
ASHADE
 62
     1
100
AcDbBlockReference
  2
AVE_RENDER
 10
0.0
 20
0.0
 30
0.0
1001
AVE_RENDER
1002
{
1070
     7
1000
Pref
1070
    50
1070
    20
1070
     1
1070
     0
1000

1070
    10
1070
     1
1070
    10
1040
1.0
1070
     1
1040
0.3
1040
0.7
1040
0.0
1040
10.0
1010
-1.0
1020
-1.0
1030
-1.0
1040
0.3
1070
    49
1070
     0
1070
     0
1010
1.0
1020
1.0
1030
1.0
1040
45.0
1070
     1
1070
     0
1000
WCS
1040
0.0
1070
     0
1040
10.0
1002
}
  0
INSERT
  5
EA1F
330
DCF2
100
AcDbEntity
  8
ASHADE
 62
     3
100
AcDbBlockReference
  2
AVE_RENDER
 10
0.0
 20
0.0
 30
0.0
1001
AVE_RENDER
1002
{
1070
     0
1000
Full Opt
1070
     0
1070
     1
1070
     1
1070
     1
1070
     0
1070
     0
1070
     0
1070
     1
1070
     1
1040
0.0001
1040
0.0001
1002
}
  0
INSERT
  5
EA20
330
DCF2
100
AcDbEntity
  8
ASHADE
 62
     4
100
AcDbBlockReference
  2
AVE_RENDER
 10
0.0
 20
0.0
 30
0.0
1001
AVE_RENDER
1002
{
1070
     0
1000
Quick Opt
1070
     0
1070
     1
1070
     1
1070
     1
1070
     0
1070
     0
1070
     1
1002
}
  0
INSERT
  5
EA21
330
DCF2
100
AcDbEntity
  8
ASHADE
 62
     5
100
AcDbBlockReference
  2
AVE_RENDER
 10
0.0
 20
0.0
 30
0.0
1001
AVE_RENDER
1002
{
1070
     1
1000
Scanl Opt
1070
     2
1070
     0
1070
     2
1040
2.0
1040
4.0
1070
     0
1070
     1
1070
     0
1040
0.03
1002
}
  0
INSERT
  5
EA22
330
DCF2
100
AcDbEntity
  8
ASHADE
 62
     6
100
AcDbBlockReference
  2
AVE_RENDER
 10
0.0
 20
0.0
 30
0.0
1001
AVE_RENDER
1002
{
1070
     2
1000
Raytr Opt
1070
     2
1070
     0
1070
     2
1040
2.0
1040
4.0
1070
     0
1070
     1
1070
     1
1040
0.03
1070
     3
1040
0.03
1002
}
  0
INSERT
  5
EA23
330
DCF2
100
AcDbEntity
  8
ASHADE
 62
     7
100
AcDbBlockReference
  2
AVE_RENDER
 10
0.0
 20
0.0
 30
0.0
1001
AVE_RENDER
1002
{
1070
     0
1000
RFile Opt
1070
     1
1070
   640
1070
   480
1070
 10000
1070
     1
1070
     8
1070
     8
1070
     0
1070
     0
1070
     0
1070
     0
1070
     0
1070
     0
1070
     0
1002
}
  0
INSERT
  5
EA24
330
DCF2
100
AcDbEntity
  8
ASHADE
 62
     8
100
AcDbBlockReference
  2
AVE_RENDER
 10
0.0
 20
0.0
 30
0.0
1001
AVE_RENDER
1002
{
1070
     0
1000
Fog Opt
1070
     0
1070
     0
1040
0.0
1040
1.0
1040
0.0
1040
1.0
1010
0.5
1020
0.5
1030
0.5
1002
}
  0
INSERT
  5
EA25
330
DCF2
100
AcDbEntity
  8
ASHADE
 62
     9
100
AcDbBlockReference
  2
AVE_RENDER
 10
0.0
 20
0.0
 30
0.0
1001
AVE_RENDER
1002
{
1070
     0
1000
BG Opt
1070
     0
1070
     0
1010
1.0
1020
1.0
1030
1.0
1010
1.0
1020
0.0
1030
0.0
1010
0.0
1020
1.0
1030
0.0
1010
0.0
1020
0.0
1030
1.0
1040
0.5
1040
0.33
1040
0.0
1000

1070
     1
1000

1070
     1
1070
     1
1040
1.0
1040
1.0
1040
0.0
1040
0.0
1070
     0
1002
}
  0
INSERT
  5
EA2B
330
DCF2
100
AcDbEntity
  8
ASHADE
 62
     1
100
AcDbBlockReference
  2
AVE_GLOBAL
 10
0.0
 20
0.0
 30
0.0
1001
AVE_MATERIAL
1002
{
1000
*GLOBAL*
1000
1
1000
Global finish.
1002
{
1002
}
1002
{
1070
    63
1002
{
1002
{
1010
-1.0
1020
-1.0
1030
-1.0
1002
}
1040
0.1000000014901161
1000

1040
0.0
1002
{
1002
}
1040
0.0
1002
{
1002
}
1040
0.0
1002
}
1002
{
1002
{
1010
-1.0
1020
-1.0
1030
-1.0
1002
}
1040
0.6999999880790711
1000

1040
0.0
1002
{
1002
}
1040
0.0
1002
{
1002
}
1040
0.0
1002
}
1002
{
1002
{
1010
-1.0
1020
-1.0
1030
-1.0
1002
}
1040
0.2000000029802322
1000

1040
0.0
1002
{
1002
}
1040
0.0
1002
{
1002
}
1040
0.0
1002
}
1002
{
1070
     0
1002
{
1070
     1
1002
{
1040
1.0
1040
1.0
1000

1040
0.0
1002
{
1002
}
1040
0.0
1002
{
1002
}
1040
0.0
1002
}
1002
}
1040
1.0
1040
0.0
1040
0.0
1002
}
1002
{
1040
1.0
1040
1.0
1000

1040
0.0
1002
{
1002
}
1040
0.0
1002
{
1002
}
1040
0.0
1002
}
1002
{
1040
0.5
1040
1.0
1000

1040
0.0
1002
{
1002
}
1040
0.0
1002
{
1002
}
1040
0.0
1002
}
1002
{
1070
     0
1040
0.0
1002
{
1002
}
1040
1.0
1002
{
1002
}
1040
0.0
1002
}
1002
{
1040
0.0
1002
{
1002
{
1010
0.0
1020
0.0
1030
0.0
1002
}
1040
1.0
1000

1040
0.0
1002
{
1002
}
1040
0.0
1002
{
1002
}
1040
0.0
1002
}
1002
}
1002
{
1002
{
1070
     1
1002
{
1040
0.0
1040
1.0
1000

1040
0.0
1002
{
1002
}
1040
0.0
1002
{
1002
}
1040
0.0
1002
}
1002
}
1040
0.0
1002
{
1002
}
1010
1.0
1020
0.0
1030
0.0
1010
0.0
1020
1.0
1030
0.0
1010
0.0
1020
0.0
1030
1.0
1070
     0
1002
}
1002
{
1002
{
1040
1.0
1040
1.0
1002
{
1070
     1
1002
{
1040
1.0
1040
1.0
1000

1040
0.0
1002
{
1002
}
1040
0.0
1002
{
1002
}
1040
0.0
1002
}
1002
}
1002
}
1070
     0
1040
0.0
1002
{
1002
}
1002
}
1002
{
1002
}
1002
}
1002
{
1071
        3
1070
     3
1070
     0
1002
{
1070
     2
1070
     0
1070
     0
1040
0.0
1002
}
1070
     0
1070
     2
1002
{
1002
}
1002
}
1002
{
1040
8030.0
1040
190.3000030517578
1040
0.3050000071525574
1040
228.0
1040
545.0
1040
14.0
1040
17.39999961853027
1040
0.4560000002384186
1002
}
1002
}
  0
LINE
  5
13FF8
330
DCF2
100
AcDbEntity
  8
Ancontension
100
AcDbLine
 10
2631.687313901311
 20
252.1501593995763
 30
0.0
 11
2628.397229667566
 21
252.6021335079926
 31
0.0
  0
LINE
  5
13FFC
330
DCF2
100
AcDbEntity
  8
Ancontension
100
AcDbLine
 10
2631.687313901311
 20
218.7054160874722
 30
0.0
 11
2628.397229667569
 21
218.253441979056
 31
0.0
  0
LINE
  5
13FFD
330
DCF2
100
AcDbEntity
  8
Ancontension
  6
HIDDEN1_01
100
AcDbLine
 10
2601.335241569952
 20
227.4277877435249
 30
0.0
 11
2632.335241569952
 21
227.4277877435252
 31
0.0
  0
LINE
  5
13FFE
330
DCF2
100
AcDbEntity
  8
Ancontension
  6
HIDDEN1_01
100
AcDbLine
 10
2601.335241569952
 20
243.427787743525
 30
0.0
 11
2632.335241569952
 21
243.427787743525
 31
0.0
  0
LINE
  5
13FFF
330
DCF2
100
AcDbEntity
  8
Ancontension
  6
HIDDEN1_01
100
AcDbLine
 10
2601.335241569952
 20
180.4814590460831
 30
0.0
 11
2632.335241569952
 21
180.4814590460831
 31
0.0
  0
LINE
  5
14000
330
DCF2
100
AcDbEntity
  8
Ancontension
  6
HIDDEN1_01
100
AcDbLine
 10
2601.335241569952
 20
164.4814590460832
 30
0.0
 11
2632.335241569952
 21
164.4814590460834
 31
0.0
  0
LINE
  5
14001
330
DCF2
100
AcDbEntity
  8
Ancontension
100
AcDbLine
 10
2631.687313901311
 20
155.7590873900304
 30
0.0
 11
2628.397229667569
 21
155.3071132816143
 31
0.0
  0
LINE
  5
14002
330
DCF2
100
AcDbEntity
  8
Ancontension
100
AcDbLine
 10
2631.687313901311
 20
189.2038307021345
 30
0.0
 11
2628.397229667566
 21
189.6558048105509
 31
0.0
  0
LINE
  5
14004
330
DCF2
100
AcDbEntity
  8
Ancontension
100
AcDbLine
 10
2563.335241569951
 20
188.4608090071818
 30
0.0
 11
2563.335241569951
 21
156.5021090849836
 31
0.0
  0
LINE
  5
14005
330
DCF2
100
AcDbEntity
  8
Ancontension
100
AcDbLine
 10
2563.335241569951
 20
188.4608090071818
 30
0.0
 11
2563.335241569951
 21
156.5021090849836
 31
0.0
  0
LINE
  5
14006
330
DCF2
100
AcDbEntity
  8
Ancontension
100
AcDbLine
 10
2530.983169238591
 20
160.2924502215221
 30
0.0
 11
2562.483169238591
 21
155.9651493369166
 31
0.0
  0
LINE
  5
14007
330
DCF2
100
AcDbEntity
  8
Ancontension
100
AcDbLine
 10
2572.036628935814
 20
154.9814590460833
 30
0.0
 11
2623.633854204085
 21
154.9814590460826
 31
0.0
  0
ARC
  5
14008
330
DCF2
100
AcDbEntity
  8
Ancontension
100
AcDbCircle
 10
2562.585241569951
 20
156.7081710318694
 30
0.0
 40
0.75
100
AcDbArc
 50
262.1779734234495
 51
0.0000000000065138
  0
ARC
  5
14009
330
DCF2
100
AcDbEntity
  8
Ancontension
100
AcDbCircle
 10
2572.036628935814
 20
189.9814590460831
 30
0.0
 40
35.0
100
AcDbArc
 50
262.1779734234495
 51
270.0
  0
ARC
  5
1400A
330
DCF2
100
AcDbEntity
  8
Ancontension
100
AcDbCircle
 10
2564.085241569951
 20
156.5021090849836
 30
0.0
 40
0.75
100
AcDbArc
 50
180.0
 51
262.1779734234495
  0
LINE
  5
1400B
330
DCF2
100
AcDbEntity
  8
Ancontension
100
AcDbLine
 10
2563.983169238591
 20
155.7590873900306
 30
0.0
 11
2567.273253472331
 21
155.3071132816151
 31
0.0
  0
ARC
  5
1400C
330
DCF2
100
AcDbEntity
  8
Ancontension
100
AcDbCircle
 10
2623.633854204086
 20
189.9814590460825
 30
0.0
 40
35.0
100
AcDbArc
 50
270.0
 51
277.8220265765245
  0
LINE
  5
14010
330
DCF2
100
AcDbEntity
  8
Ancontension
100
AcDbLine
 10
2623.633854204084
 20
252.9277877435247
 30
0.0
 11
2604.199202600631
 21
272.3624393469774
 31
0.0
  0
LINE
  5
14011
330
DCF2
100
AcDbEntity
  8
Ancontension
100
AcDbLine
 10
2572.03662893582
 20
252.9277877435247
 30
0.0
 11
2591.471280539273
 21
272.3624393469774
 31
0.0
  0
LINE
  5
14012
330
DCF2
100
AcDbEntity
  8
Ancontension
100
AcDbLine
 10
2530.983169238591
 20
247.6167965680851
 30
0.0
 11
2562.483169238591
 21
251.9440974526904
 31
0.0
  0
LINE
  5
14013
330
DCF2
100
AcDbEntity
  8
Ancontension
100
AcDbLine
 10
2530.983169238591
 20
223.2387789189638
 30
0.0
 11
2562.483169238591
 21
218.9114780343583
 31
0.0
  0
LINE
  5
14014
330
DCF2
100
AcDbEntity
  8
Ancontension
  6
HIDDEN1_01
100
AcDbLine
 10
2563.335241569951
 20
243.4277877435246
 30
0.0
 11
2546.835241569951
 21
243.4277877435246
 31
0.0
  0
LINE
  5
14015
330
DCF2
100
AcDbEntity
  8
Ancontension
  6
HIDDEN1_01
100
AcDbLine
 10
2563.335241569951
 20
227.4277877435247
 30
0.0
 11
2546.835241569951
 21
227.4277877435247
 31
0.0
  0
LINE
  5
14016
330
DCF2
100
AcDbEntity
  8
Ancontension
  6
HIDDEN1_01
100
AcDbLine
 10
2563.335241569951
 20
164.4814590460829
 30
0.0
 11
2546.835241569951
 21
164.4814590460829
 31
0.0
  0
LINE
  5
14017
330
DCF2
100
AcDbEntity
  8
Ancontension
  6
HIDDEN1_01
100
AcDbLine
 10
2563.335241569951
 20
180.4814590460827
 30
0.0
 11
2546.835241569951
 21
180.4814590460827
 31
0.0
  0
LINE
  5
14018
330
DCF2
100
AcDbEntity
  8
Ancontension
100
AcDbLine
 10
2530.983169238591
 20
184.6704678706437
 30
0.0
 11
2562.483169238591
 21
188.9977687552491
 31
0.0
  0
LINE
  5
14019
330
DCF2
100
AcDbEntity
  8
Ancontension
  6
HIDDEN1_01
100
AcDbLine
 10
2546.835241569951
 20
180.9814590460828
 30
0.0
 11
2546.835241569951
 21
163.9814590460829
 31
0.0
  0
LINE
  5
1401A
330
DCF2
100
AcDbEntity
  8
Ancontension
100
AcDbLine
 10
2530.335241569951
 20
183.9274461756907
 30
0.0
 11
2530.335241569951
 21
161.035471916475
 31
0.0
  0
LINE
  5
1401B
330
DCF2
100
AcDbEntity
  8
Ancontension
  6
HIDDEN1_01
100
AcDbLine
 10
2546.835241569951
 20
163.9814590460829
 30
0.0
 11
2530.335241569951
 21
163.9814590460829
 31
0.0
  0
ARC
  5
1401C
330
DCF2
100
AcDbEntity
  8
Ancontension
100
AcDbCircle
 10
2531.085241569951
 20
161.035471916475
 30
0.0
 40
0.75
100
AcDbArc
 50
180.0
 51
262.1779734234495
  0
LINE
  5
1401D
330
DCF2
100
AcDbEntity
  8
Ancontension
  6
HIDDEN1_01
100
AcDbLine
 10
2546.835241569951
 20
180.9814590460828
 30
0.0
 11
2530.335241569951
 21
180.9814590460828
 31
0.0
  0
ARC
  5
1401E
330
DCF2
100
AcDbEntity
  8
Ancontension
100
AcDbCircle
 10
2531.085241569951
 20
183.9274461756907
 30
0.0
 40
0.75
100
AcDbArc
 50
97.82202657652458
 51
180.0
  0
LINE
  5
1401F
330
DCF2
100
AcDbEntity
  8
Ancontension
  6
HIDDEN1_01
100
AcDbLine
 10
2546.835241569951
 20
243.9277877435247
 30
0.0
 11
2546.835241569951
 21
226.9277877435246
 31
0.0
  0
LINE
  5
14020
330
DCF2
100
AcDbEntity
  8
Ancontension
100
AcDbLine
 10
2530.335241569951
 20
246.8737748731323
 30
0.0
 11
2530.335241569951
 21
223.9818006139166
 31
0.0
  0
LINE
  5
14021
330
DCF2
100
AcDbEntity
  8
Ancontension
  6
HIDDEN1_01
100
AcDbLine
 10
2546.835241569951
 20
226.9277877435246
 30
0.0
 11
2530.335241569951
 21
226.9277877435246
 31
0.0
  0
ARC
  5
14022
330
DCF2
100
AcDbEntity
  8
Ancontension
100
AcDbCircle
 10
2531.085241569951
 20
223.9818006139166
 30
0.0
 40
0.75
100
AcDbArc
 50
180.0
 51
262.1779734234495
  0
LINE
  5
14023
330
DCF2
100
AcDbEntity
  8
Ancontension
  6
HIDDEN1_01
100
AcDbLine
 10
2546.835241569951
 20
243.9277877435247
 30
0.0
 11
2530.335241569951
 21
243.9277877435247
 31
0.0
  0
ARC
  5
14024
330
DCF2
100
AcDbEntity
  8
Ancontension
100
AcDbCircle
 10
2531.085241569951
 20
246.8737748731323
 30
0.0
 40
0.75
100
AcDbArc
 50
97.82202657652458
 51
180.0
  0
LINE
  5
14027
330
DCF2
100
AcDbEntity
  8
Ancontension
100
AcDbLine
 10
2572.03662893582
 20
169.4814590460831
 30
0.0
 11
2623.633854204084
 21
169.4814590460826
 31
0.0
  0
LINE
  5
14028
330
DCF2
100
AcDbEntity
  8
Ancontension
100
AcDbLine
 10
2572.03662893582
 20
175.4814590460831
 30
0.0
 11
2623.633854204084
 21
175.4814590460824
 31
0.0
  0
LINE
  5
14029
330
DCF2
100
AcDbEntity
  8
Ancontension
100
AcDbLine
 10
2572.03662893582
 20
189.9814590460831
 30
0.0
 11
2623.633854204084
 21
189.9814590460827
 31
0.0
  0
LINE
  5
1402A
330
DCF2
100
AcDbEntity
  8
Ancontension
  6
HIDDEN1_01
100
AcDbLine
 10
2563.335241569951
 20
180.4814590460835
 30
0.0
 11
2594.335241569952
 21
180.4814590460831
 31
0.0
  0
LINE
  5
1402B
330
DCF2
100
AcDbEntity
  8
Ancontension
  6
HIDDEN1_01
100
AcDbLine
 10
2563.335241569951
 20
164.4814590460832
 30
0.0
 11
2594.335241569952
 21
164.4814590460832
 31
0.0
  0
ELLIPSE
  5
1402C
330
DCF2
100
AcDbEntity
  8
Ancontension
100
AcDbEllipse
 10
2555.085080524071
 20
161.5213039376913
 30
0.0
 11
2.25
 21
0.0
 31
0.0
210
0.0
220
0.0
230
1.0
 40
0.7071067811865408
 41
0.0
 42
6.283185307179585
  0
ELLIPSE
  5
1402D
330
DCF2
100
AcDbEntity
  8
Ancontension
100
AcDbEllipse
 10
2555.085080524071
 20
183.4416141544743
 30
0.0
 11
2.25
 21
0.0
 31
0.0
210
0.0
220
0.0
230
-1.0
 40
0.7071067811865408
 41
0.0
 42
6.283185307179585
  0
LINE
  5
1402E
330
DCF2
100
AcDbEntity
  8
Ancontension
100
AcDbLine
 10
2572.03662893582
 20
175.4814590460831
 30
0.0
 11
2572.03662893582
 21
169.4814590460831
 31
0.0
  0
ARC
  5
1402F
330
DCF2
100
AcDbEntity
  8
Ancontension
100
AcDbCircle
 10
2562.585241569951
 20
188.2547470602961
 30
0.0
 40
0.75
100
AcDbArc
 50
0.0
 51
97.82202657652458
  0
ARC
  5
14030
330
DCF2
100
AcDbEntity
  8
Ancontension
100
AcDbCircle
 10
2572.03662893582
 20
154.981459046083
 30
0.0
 40
35.0
100
AcDbArc
 50
90.0
 51
97.82202657652458
  0
ARC
  5
14031
330
DCF2
100
AcDbEntity
  8
Ancontension
100
AcDbCircle
 10
2564.085241569951
 20
188.4608090071818
 30
0.0
 40
0.75
100
AcDbArc
 50
97.82202657652458
 51
180.0
  0
LINE
  5
14032
330
DCF2
100
AcDbEntity
  8
Ancontension
100
AcDbLine
 10
2563.983169238591
 20
189.2038307021348
 30
0.0
 11
2567.273253472337
 21
189.6558048105512
 31
0.0
  0
LINE
  5
14033
330
DCF2
100
AcDbEntity
  8
Ancontension
  6
HIDDEN1_01
100
AcDbLine
 10
2601.085241569952
 20
175.4814590460827
 30
0.0
 11
2601.085241569951
 21
169.4814590460829
 31
0.0
  0
LINE
  5
14034
330
DCF2
100
AcDbEntity
  8
Ancontension
  6
HIDDEN1_01
100
AcDbLine
 10
2594.585241569951
 20
175.4814590460827
 30
0.0
 11
2594.585241569951
 21
169.4814590460829
 31
0.0
  0
LINE
  5
14035
330
DCF2
100
AcDbEntity
  8
Ancontension
  6
HIDDEN1_01
100
AcDbLine
 10
2594.335241569952
 20
165.4814590460832
 30
0.0
 11
2601.335241569952
 21
165.4814590460832
 31
0.0
  0
LINE
  5
14036
330
DCF2
100
AcDbEntity
  8
Ancontension
  6
HIDDEN1_01
100
AcDbLine
 10
2594.335241569952
 20
165.4814590460834
 30
0.0
 11
2594.335241569952
 21
164.4814590460834
 31
0.0
  0
LINE
  5
14037
330
DCF2
100
AcDbEntity
  8
Ancontension
  6
HIDDEN1_01
100
AcDbLine
 10
2601.335241569952
 20
165.4814590460834
 30
0.0
 11
2601.335241569952
 21
164.4814590460834
 31
0.0
  0
LINE
  5
14038
330
DCF2
100
AcDbEntity
  8
Ancontension
  6
HIDDEN1_01
100
AcDbLine
 10
2594.335241569952
 20
179.4814590460835
 30
0.0
 11
2601.335241569952
 21
179.4814590460836
 31
0.0
  0
LINE
  5
14039
330
DCF2
100
AcDbEntity
  8
Ancontension
  6
HIDDEN1_01
100
AcDbLine
 10
2594.335241569952
 20
180.4814590460831
 30
0.0
 11
2594.335241569952
 21
179.4814590460831
 31
0.0
  0
LINE
  5
1403A
330
DCF2
100
AcDbEntity
  8
Ancontension
  6
HIDDEN1_01
100
AcDbLine
 10
2601.335241569952
 20
180.4814590460831
 30
0.0
 11
2601.335241569952
 21
179.4814590460831
 31
0.0
  0
LINE
  5
1403B
330
DCF2
100
AcDbEntity
  8
Ancontension
100
AcDbLine
 10
2623.633854204084
 20
175.4814590460824
 30
0.0
 11
2623.633854204084
 21
169.4814590460826
 31
0.0
  0
ARC
  5
1403C
330
DCF2
100
AcDbEntity
  8
Ancontension
100
AcDbCircle
 10
2623.633854204084
 20
154.9814590460828
 30
0.0
 40
35.0
100
AcDbArc
 50
82.17797342347541
 51
90.0
  0
LINE
  5
1403D
330
DCF2
100
AcDbEntity
  8
Ancontension
100
AcDbLine
 10
2572.03662893582
 20
252.9277877435247
 30
0.0
 11
2623.633854204084
 21
252.9277877435244
 31
0.0
  0
LINE
  5
1403E
330
DCF2
100
AcDbEntity
  8
Ancontension
100
AcDbLine
 10
2572.036628935814
 20
217.927787743525
 30
0.0
 11
2623.633854204085
 21
217.9277877435243
 31
0.0
  0
LINE
  5
1403F
330
DCF2
100
AcDbEntity
  8
Ancontension
  6
HIDDEN1_01
100
AcDbLine
 10
2563.335241569951
 20
227.4277877435249
 30
0.0
 11
2594.335241569952
 21
227.4277877435249
 31
0.0
  0
LINE
  5
14040
330
DCF2
100
AcDbEntity
  8
Ancontension
  6
HIDDEN1_01
100
AcDbLine
 10
2563.335241569951
 20
243.427787743525
 30
0.0
 11
2594.335241569952
 21
243.427787743525
 31
0.0
  0
LINE
  5
14042
330
DCF2
100
AcDbEntity
  8
Ancontension
100
AcDbLine
 10
2563.335241569951
 20
251.4071377046239
 30
0.0
 11
2563.335241569951
 21
219.4484377824253
 31
0.0
  0
LINE
  5
14044
330
DCF2
100
AcDbEntity
  8
Ancontension
100
AcDbLine
 10
2563.335241569951
 20
251.4071377046239
 30
0.0
 11
2563.335241569951
 21
219.4484377824253
 31
0.0
  0
ELLIPSE
  5
14045
330
DCF2
100
AcDbEntity
  8
Ancontension
100
AcDbEllipse
 10
2555.085080524071
 20
224.467632635133
 30
0.0
 11
2.25
 21
0.0
 31
0.0
210
0.0
220
0.0
230
1.0
 40
0.7071067811865408
 41
0.0
 42
6.283185307179585
  0
ARC
  5
14046
330
DCF2
100
AcDbEntity
  8
Ancontension
100
AcDbCircle
 10
2562.585241569951
 20
219.6544997293111
 30
0.0
 40
0.75
100
AcDbArc
 50
262.1779734234495
 51
0.0000000000065138
  0
ARC
  5
14047
330
DCF2
100
AcDbEntity
  8
Ancontension
100
AcDbCircle
 10
2572.036628935814
 20
252.9277877435252
 30
0.0
 40
35.0
100
AcDbArc
 50
262.1779734234495
 51
270.0
  0
ARC
  5
14048
330
DCF2
100
AcDbEntity
  8
Ancontension
100
AcDbCircle
 10
2564.085241569951
 20
219.4484377824253
 30
0.0
 40
0.75
100
AcDbArc
 50
180.0
 51
262.1779734234495
  0
LINE
  5
14049
330
DCF2
100
AcDbEntity
  8
Ancontension
100
AcDbLine
 10
2563.983169238591
 20
218.7054160874724
 30
0.0
 11
2567.273253472331
 21
218.2534419790568
 31
0.0
  0
ELLIPSE
  5
1404A
330
DCF2
100
AcDbEntity
  8
Ancontension
100
AcDbEllipse
 10
2555.085080524071
 20
246.387942851916
 30
0.0
 11
2.25
 21
0.0
 31
0.0
210
0.0
220
0.0
230
-1.0
 40
0.7071067811865408
 41
0.0
 42
6.283185307179585
  0
ARC
  5
1404B
330
DCF2
100
AcDbEntity
  8
Ancontension
100
AcDbCircle
 10
2562.585241569951
 20
251.2010757577376
 30
0.0
 40
0.75
100
AcDbArc
 50
0.0
 51
97.82202657652458
  0
ARC
  5
1404E
330
DCF2
100
AcDbEntity
  8
Ancontension
100
AcDbCircle
 10
2572.03662893582
 20
217.9277877435247
 30
0.0
 40
35.0
100
AcDbArc
 50
90.0
 51
97.82202657652458
  0
ARC
  5
1404F
330
DCF2
100
AcDbEntity
  8
Ancontension
100
AcDbCircle
 10
2564.085241569951
 20
251.4071377046239
 30
0.0
 40
0.75
100
AcDbArc
 50
97.82202657652458
 51
180.0
  0
LINE
  5
14050
330
DCF2
100
AcDbEntity
  8
Ancontension
100
AcDbLine
 10
2563.983169238591
 20
252.1501593995767
 30
0.0
 11
2567.273253472337
 21
252.602133507993
 31
0.0
  0
LINE
  5
14051
330
DCF2
100
AcDbEntity
  8
Ancontension
  6
HIDDEN1_01
100
AcDbLine
 10
2594.335241569952
 20
243.427787743525
 30
0.0
 11
2594.335241569952
 21
242.4277877435252
 31
0.0
  0
LINE
  5
14052
330
DCF2
100
AcDbEntity
  8
Ancontension
  6
HIDDEN1_01
100
AcDbLine
 10
2601.335241569952
 20
243.427787743525
 30
0.0
 11
2601.335241569952
 21
242.4277877435252
 31
0.0
  0
LINE
  5
14054
330
DCF2
100
AcDbEntity
  8
Ancontension
  6
HIDDEN1_01
100
AcDbLine
 10
2594.335241569952
 20
228.4277877435249
 30
0.0
 11
2601.335241569952
 21
228.4277877435249
 31
0.0
  0
LINE
  5
14055
330
DCF2
100
AcDbEntity
  8
Ancontension
  6
HIDDEN1_01
100
AcDbLine
 10
2601.335241569952
 20
228.427787743525
 30
0.0
 11
2601.335241569952
 21
227.4277877435252
 31
0.0
  0
LINE
  5
14056
330
DCF2
100
AcDbEntity
  8
Ancontension
  6
HIDDEN1_01
100
AcDbLine
 10
2594.335241569952
 20
228.427787743525
 30
0.0
 11
2594.335241569952
 21
227.4277877435252
 31
0.0
  0
LINE
  5
14057
330
DCF2
100
AcDbEntity
  8
Ancontension
  6
HIDDEN1_01
100
AcDbLine
 10
2594.335241569952
 20
242.4277877435252
 30
0.0
 11
2601.335241569952
 21
242.4277877435252
 31
0.0
  0
ARC
  5
14058
330
DCF2
100
AcDbEntity
  8
Ancontension
100
AcDbCircle
 10
2623.633854204086
 20
252.9277877435241
 30
0.0
 40
35.0
100
AcDbArc
 50
270.0
 51
277.8220265765245
  0
CIRCLE
  5
1405D
330
DCF2
100
AcDbEntity
  8
Ancontension
100
AcDbCircle
 10
2597.835241569953
 20
265.9984783162986
 30
0.0
 40
3.25
  0
ARC
  5
1405E
330
DCF2
100
AcDbEntity
  8
Ancontension
100
AcDbCircle
 10
2623.633854204084
 20
217.9277877435245
 30
0.0
 40
35.0
100
AcDbArc
 50
82.17797342347541
 51
90.0
  0
ARC
  5
1405F
330
DCF2
100
AcDbEntity
  8
Ancontension
100
AcDbCircle
 10
2597.835241569953
 20
265.9984783162986
 30
0.0
 40
9.0
100
AcDbArc
 50
44.99999999999539
 51
135.0000000000046
  0
LINE
  5
14060
330
DCF2
100
AcDbEntity
  8
Ancontension
100
AcDbLine
 10
2632.335241569952
 20
188.4608090071816
 30
0.0
 11
2632.335241569952
 21
156.5021090849834
 31
0.0
  0
LINE
  5
14061
330
DCF2
100
AcDbEntity
  8
Ancontension
100
AcDbLine
 10
2632.335241569952
 20
188.4608090071816
 30
0.0
 11
2632.335241569952
 21
156.5021090849834
 31
0.0
  0
LINE
  5
14062
330
DCF2
100
AcDbEntity
  8
Ancontension
100
AcDbLine
 10
2664.687313901312
 20
160.2924502215218
 30
0.0
 11
2633.187313901311
 21
155.9651493369161
 31
0.0
  0
ARC
  5
14063
330
DCF2
100
AcDbEntity
  8
Ancontension
100
AcDbCircle
 10
2633.085241569952
 20
156.708171031869
 30
0.0
 40
0.75
100
AcDbArc
 50
179.9999999999934
 51
277.8220265765245
  0
ARC
  5
14064
330
DCF2
100
AcDbEntity
  8
Ancontension
100
AcDbCircle
 10
2631.585241569952
 20
156.5021090849834
 30
0.0
 40
0.75
100
AcDbArc
 50
277.8220265765245
 51
0.0
  0
LINE
  5
14066
330
DCF2
100
AcDbEntity
  8
Ancontension
  6
HIDDEN1_01
100
AcDbLine
 10
2648.835241569952
 20
163.9814590460825
 30
0.0
 11
2665.335241569952
 21
163.9814590460825
 31
0.0
  0
LINE
  5
14067
330
DCF2
100
AcDbEntity
  8
Ancontension
  6
HIDDEN1_01
100
AcDbLine
 10
2648.835241569952
 20
180.9814590460826
 30
0.0
 11
2665.335241569952
 21
180.9814590460826
 31
0.0
  0
LINE
  5
14068
330
DCF2
100
AcDbEntity
  8
Ancontension
100
AcDbLine
 10
2664.687313901312
 20
184.6704678706432
 30
0.0
 11
2633.187313901311
 21
188.9977687552486
 31
0.0
  0
LINE
  5
1406A
330
DCF2
100
AcDbEntity
  8
Ancontension
  6
HIDDEN1_01
100
AcDbLine
 10
2648.835241569952
 20
180.9814590460826
 30
0.0
 11
2648.835241569952
 21
163.9814590460825
 31
0.0
  0
LINE
  5
1406B
330
DCF2
100
AcDbEntity
  8
Ancontension
  6
HIDDEN1_01
100
AcDbLine
 10
2632.335241569952
 20
164.4814590460826
 30
0.0
 11
2648.835241569952
 21
164.4814590460826
 31
0.0
  0
ELLIPSE
  5
1406C
330
DCF2
100
AcDbEntity
  8
Ancontension
100
AcDbEllipse
 10
2640.585402615831
 20
161.521303937691
 30
0.0
 11
-2.25
 21
0.0
 31
0.0
210
0.0
220
0.0
230
-1.0
 40
0.7071067811865408
 41
0.0
 42
6.283185307179585
  0
LINE
  5
1406D
330
DCF2
100
AcDbEntity
  8
Ancontension
  6
HIDDEN1_01
100
AcDbLine
 10
2632.335241569952
 20
180.4814590460825
 30
0.0
 11
2648.835241569952
 21
180.4814590460825
 31
0.0
  0
ELLIPSE
  5
1406E
330
DCF2
100
AcDbEntity
  8
Ancontension
100
AcDbEllipse
 10
2640.585402615831
 20
183.4416141544739
 30
0.0
 11
-2.25
 21
0.0
 31
0.0
210
0.0
220
0.0
230
1.0
 40
0.7071067811865408
 41
0.0
 42
6.283185307179585
  0
ARC
  5
1406F
330
DCF2
100
AcDbEntity
  8
Ancontension
100
AcDbCircle
 10
2633.085241569952
 20
188.2547470602958
 30
0.0
 40
0.75
100
AcDbArc
 50
82.17797342347541
 51
180.0
  0
ARC
  5
14070
330
DCF2
100
AcDbEntity
  8
Ancontension
100
AcDbCircle
 10
2631.585241569952
 20
188.4608090071816
 30
0.0
 40
0.75
100
AcDbArc
 50
0.0
 51
82.17797342347541
  0
LINE
  5
14071
330
DCF2
100
AcDbEntity
  8
Ancontension
100
AcDbLine
 10
2665.335241569952
 20
183.9274461756904
 30
0.0
 11
2665.335241569952
 21
161.0354719164746
 31
0.0
  0
ARC
  5
14072
330
DCF2
100
AcDbEntity
  8
Ancontension
100
AcDbCircle
 10
2664.585241569952
 20
161.0354719164746
 30
0.0
 40
0.75
100
AcDbArc
 50
277.8220265765245
 51
0.0
  0
ARC
  5
14073
330
DCF2
100
AcDbEntity
  8
Ancontension
100
AcDbCircle
 10
2664.585241569952
 20
183.9274461756904
 30
0.0
 40
0.75
100
AcDbArc
 50
0.0
 51
82.17797342347541
  0
LINE
  5
14074
330
DCF2
100
AcDbEntity
  8
Ancontension
100
AcDbLine
 10
2664.687313901312
 20
247.6167965680849
 30
0.0
 11
2633.187313901311
 21
251.9440974526903
 31
0.0
  0
LINE
  5
14075
330
DCF2
100
AcDbEntity
  8
Ancontension
100
AcDbLine
 10
2664.687313901312
 20
223.2387789189635
 30
0.0
 11
2633.187313901311
 21
218.9114780343579
 31
0.0
  0
LINE
  5
14076
330
DCF2
100
AcDbEntity
  8
Ancontension
  6
HIDDEN1_01
100
AcDbLine
 10
2648.835241569952
 20
226.9277877435241
 30
0.0
 11
2665.335241569952
 21
226.9277877435241
 31
0.0
  0
LINE
  5
14077
330
DCF2
100
AcDbEntity
  8
Ancontension
  6
HIDDEN1_01
100
AcDbLine
 10
2648.835241569952
 20
243.9277877435241
 30
0.0
 11
2665.335241569952
 21
243.9277877435241
 31
0.0
  0
LINE
  5
14078
330
DCF2
100
AcDbEntity
  8
Ancontension
  6
HIDDEN1_01
100
AcDbLine
 10
2648.835241569952
 20
243.9277877435241
 30
0.0
 11
2648.835241569952
 21
226.9277877435241
 31
0.0
  0
LINE
  5
1407A
330
DCF2
100
AcDbEntity
  8
Ancontension
100
AcDbLine
 10
2632.335241569952
 20
251.4071377046234
 30
0.0
 11
2632.335241569952
 21
219.4484377824251
 31
0.0
  0
LINE
  5
1407B
330
DCF2
100
AcDbEntity
  8
Ancontension
100
AcDbLine
 10
2632.335241569952
 20
251.4071377046234
 30
0.0
 11
2632.335241569952
 21
219.4484377824251
 31
0.0
  0
ARC
  5
1407D
330
DCF2
100
AcDbEntity
  8
Ancontension
100
AcDbCircle
 10
2633.085241569952
 20
219.6544997293107
 30
0.0
 40
0.75
100
AcDbArc
 50
179.9999999999934
 51
277.8220265765245
  0
ARC
  5
1407E
330
DCF2
100
AcDbEntity
  8
Ancontension
100
AcDbCircle
 10
2631.585241569952
 20
219.4484377824251
 30
0.0
 40
0.75
100
AcDbArc
 50
277.8220265765245
 51
0.0
  0
LINE
  5
1407F
330
DCF2
100
AcDbEntity
  8
Ancontension
  6
HIDDEN1_01
100
AcDbLine
 10
2632.335241569952
 20
227.4277877435241
 30
0.0
 11
2648.835241569952
 21
227.4277877435241
 31
0.0
  0
ELLIPSE
  5
14080
330
DCF2
100
AcDbEntity
  8
Ancontension
100
AcDbEllipse
 10
2640.585402615831
 20
224.4676326351326
 30
0.0
 11
-2.25
 21
0.0
 31
0.0
210
0.0
220
0.0
230
-1.0
 40
0.7071067811865408
 41
0.0
 42
6.283185307179585
  0
ARC
  5
14081
330
DCF2
100
AcDbEntity
  8
Ancontension
100
AcDbCircle
 10
2633.085241569952
 20
251.2010757577375
 30
0.0
 40
0.75
100
AcDbArc
 50
82.17797342347541
 51
180.0
  0
ARC
  5
14082
330
DCF2
100
AcDbEntity
  8
Ancontension
100
AcDbCircle
 10
2631.585241569952
 20
251.4071377046234
 30
0.0
 40
0.75
100
AcDbArc
 50
0.0
 51
82.17797342347541
  0
LINE
  5
14083
330
DCF2
100
AcDbEntity
  8
Ancontension
  6
HIDDEN1_01
100
AcDbLine
 10
2632.335241569952
 20
243.4277877435241
 30
0.0
 11
2648.835241569952
 21
243.4277877435241
 31
0.0
  0
ELLIPSE
  5
14084
330
DCF2
100
AcDbEntity
  8
Ancontension
100
AcDbEllipse
 10
2640.585402615831
 20
246.3879428519156
 30
0.0
 11
-2.25
 21
0.0
 31
0.0
210
0.0
220
0.0
230
1.0
 40
0.7071067811865408
 41
0.0
 42
6.283185307179585
  0
LINE
  5
14085
330
DCF2
100
AcDbEntity
  8
Ancontension
100
AcDbLine
 10
2665.335241569952
 20
246.873774873132
 30
0.0
 11
2665.335241569952
 21
223.9818006139163
 31
0.0
  0
ARC
  5
14086
330
DCF2
100
AcDbEntity
  8
Ancontension
100
AcDbCircle
 10
2664.585241569952
 20
223.9818006139163
 30
0.0
 40
0.75
100
AcDbArc
 50
277.8220265765245
 51
0.0
  0
ARC
  5
14087
330
DCF2
100
AcDbEntity
  8
Ancontension
100
AcDbCircle
 10
2664.585241569952
 20
246.873774873132
 30
0.0
 40
0.75
100
AcDbArc
 50
0.0
 51
82.17797342347541
  0
TEXT
  5
141BF
330
DCF2
100
AcDbEntity
  8
Ancontension
100
AcDbText
 10
2585.749428929899
 20
197.8310204075915
 30
0.0
 40
10.0
  1
16
  7
ROMANS
100
AcDbText
  0
VIEWPORT
  5
1077E
330
10777
100
AcDbEntity
 67
     1
  8
0
100
AcDbViewport
 10
5.649584071842704
 20
3.9337497996533
 30
0.0
 40
13.59960971915711
 41
8.742606248029574
 68
     1
 69
     1
 12
5.649584071842704
 22
3.9337497996533
 13
0.0
 23
0.0
 14
10.0
 24
10.0
 15
10.0
 25
10.0
 16
0.0
 26
0.0
 36
1.0
 17
0.0
 27
0.0
 37
0.0
 42
50.0
 43
0.0
 44
0.0
 45
8.742606248029574
 50
0.0
 51
0.0
 72
   100
 90
    32800
  1

281
     0
 71
     1
 74
     0
110
0.0
120
0.0
130
0.0
111
1.0
121
0.0
131
0.0
112
0.0
122
1.0
132
0.0
 79
     0
146
0.0
  0
VIEWPORT
  5
10780
330
10777
100
AcDbEntity
 67
     1
  8
DEFPOINTS
100
AcDbViewport
 10
5.649583752699723
 20
3.933750081250048
 30
0.0
 40
9.03933400431956
 41
6.294000130000076
 68
     2
 69
     2
 12
387.5355434982203
 22
270.7623806840798
 13
0.0
 23
0.0
 14
0.5
 24
0.5
 15
0.0
 25
0.0
 16
0.0
 26
0.0
 36
1.0
 17
0.0
 27
0.0
 37
0.0
 42
50.0
 43
0.0
 44
0.0
 45
90.26230401032616
 50
0.0
 51
0.0
 72
   100
 90
    32808
  1

281
     0
 71
     1
 74
     0
110
0.0
120
0.0
130
0.0
111
1.0
121
0.0
131
0.0
112
0.0
122
1.0
132
0.0
 79
     0
146
0.0
  0
ENDSEC
  0
SECTION
  2
OBJECTS
  0
DICTIONARY
  5
DCE7
330
0
100
AcDbDictionary
281
     1
  3
ACAD_GROUP
350
DCE8
  3
ACAD_LAYOUT
350
EBBD
  3
ACAD_MLINESTYLE
350
DCF5
  3
ACAD_PLOTSETTINGS
350
EBBE
  3
ACAD_PLOTSTYLENAME
350
EBBB
  3
AcadDim
350
EC1C
  3
ACDBHEADERROUNDTRIPXREC
350
15963
  3
ACDBVARIABLEDICTIONARY
350
DD3A
  3
AVE_ACITABLE
350
EA5F
  0
DICTIONARY
  5
1586E
330
DCF2
100
AcDbDictionary
280
     1
281
     1
  3
ACAD_LAYOUTSELFREF
360
1586F
  0
DICTIONARY
  5
15847
330
10777
100
AcDbDictionary
280
     1
281
     1
  3
ACAD_LAYOUTSELFREF
360
1587C
  0
DICTIONARY
  5
DCE8
102
{ACAD_REACTORS
330
DCE7
102
}
330
DCE7
100
AcDbDictionary
281
     1
  0
DICTIONARY
  5
EBBD
102
{ACAD_REACTORS
330
DCE7
102
}
330
DCE7
100
AcDbDictionary
281
     1
  3
Layout1
350
10778
  3
Model
350
EBBF
  0
DICTIONARY
  5
DCF5
102
{ACAD_REACTORS
330
DCE7
102
}
330
DCE7
100
AcDbDictionary
281
     1
  3
STANDARD
350
DCF6
  0
DICTIONARY
  5
EBBE
102
{ACAD_REACTORS
330
DCE7
102
}
330
DCE7
100
AcDbDictionary
281
     1
  0
ACDBDICTIONARYWDFLT
  5
EBBB
102
{ACAD_REACTORS
330
DCE7
102
}
330
DCE7
100
AcDbDictionary
281
     1
  3
Normal
350
EBBC
100
AcDbDictionaryWithDefault
340
EBBC
  0
XRECORD
  5
EC1C
102
{ACAD_REACTORS
330
DCE7
102
}
330
DCE7
100
AcDbXrecord
280
     1
 90
   990106
  3

 60
     0
 61
     0
 62
     1
 63
     3
 64
     0
 65
     0
 66
     0
 67
     3
 68
     1
 69
     0
 70
     0
 71
     0
 72
     0
 40
0.0
170
     0
340
0
  0
DICTIONARY
  5
15963
102
{ACAD_REACTORS
330
DCE7
102
}
330
DCE7
100
AcDbDictionary
281
     1
  3
CEPSNTYPE
350
1596D
  3
DIMSTYLEDATA
350
15971
  3
FINGERPRINTGUID
350
1596E
  3
HYPERLINKBASE
350
15966
  3
INSUNITS
350
1596C
  3
LAYOUTDICT
350
15968
  3
LWETCUNION
350
1596B
  3
PLOTSETDICT
350
15969
  3
PLOTSTYLNAMDICT
350
1596A
  3
PSVPSCALE
350
15970
  3
PUCSBASE
350
15974
  3
PUCSORGBACK
350
1597A
  3
PUCSORGBOTTOM
350
15976
  3
PUCSORGFRONT
350
15979
  3
PUCSORGLEFT
350
15977
  3
PUCSORGRIGHT
350
15978
  3
PUCSORGTOP
350
15975
  3
PUCSORTHOREF
350
15972
  3
PUCSORTHOVIEW
350
15973
  3
STYLESHEET
350
15967
  3
TSTACKALIGN
350
15964
  3
TSTACKSIZE
350
15965
  3
UCSBASE
350
1597D
  3
UCSORGBACK
350
15983
  3
UCSORGBOTTOM
350
1597F
  3
UCSORGFRONT
350
15982
  3
UCSORGLEFT
350
15980
  3
UCSORGRIGHT
350
15981
  3
UCSORGTOP
350
1597E
  3
UCSORTHOREF
350
1597B
  3
UCSORTHOVIEW
350
1597C
  3
VERSIONGUID
350
1596F
  0
DICTIONARY
  5
DD3A
102
{ACAD_REACTORS
330
DCE7
102
}
330
DCE7
100
AcDbDictionary
281
     1
  3
DIMADEC
350
DD3B
  3
DIMASSOC
350
EC17
  3
SORTENTS
350
E79F
  0
DICTIONARY
  5
EA5F
102
{ACAD_REACTORS
330
DCE7
102
}
330
DCE7
100
AcDbDictionary
281
     1
  0
XRECORD
  5
1586F
102
{ACAD_REACTORS
330
1586E
102
}
330
1586E
100
AcDbXrecord
280
     1
340
DCF2
  0
XRECORD
  5
1587C
102
{ACAD_REACTORS
330
15847
102
}
330
15847
100
AcDbXrecord
280
     1
340
10777
  0
LAYOUT
  5
10778
102
{ACAD_REACTORS
330
EBBD
102
}
330
EBBD
100
AcDbPlotSettings
  1

  2
\\Zeus\Xerox-Export
  4
A4
  6

 40
5.027083396911621
 41
5.027085304260253
 42
5.027069091796875
 43
5.027069091796875
 44
209.8886566162109
 45
297.0530090332031
 46
0.0
 47
0.0
 48
0.0
 49
0.0
140
0.0
141
0.0
142
1.0
143
1.0
 70
   688
 72
     0
 73
     1
 74
     5
  7

 75
    16
147
1.0
148
0.0
149
0.0
100
AcDbLayout
  1
Layout1
 70
     1
 71
     1
 10
-0.1979161059762549
 20
-0.1979166691697489
 11
11.49708424966165
 21
8.065416268476351
 12
0.0
 22
0.0
 32
0.0
 14
1.129916750539944
 24
0.78675001625001
 34
0.0
 15
10.1692507548595
 25
7.080750146250085
 35
0.0
146
0.0
 13
0.0
 23
0.0
 33
0.0
 16
1.0
 26
0.0
 36
0.0
 17
0.0
 27
1.0
 37
0.0
 76
     0
330
10777
331
1077E
  0
LAYOUT
  5
EBBF
102
{ACAD_REACTORS
330
EBBD
102
}
330
EBBD
100
AcDbPlotSettings
  1

  2
Ancon 1 A4
  4

  6

 40
0.0
 41
0.0
 42
0.0
 43
0.0
 44
0.0
 45
0.0
 46
0.0
 47
0.0
 48
0.0
 49
0.0
140
0.0
141
0.0
142
1.0
143
1.0
 70
  1712
 72
     0
 73
     0
 74
     0
  7

 75
     0
147
1.0
148
0.0
149
0.0
100
AcDbLayout
  1
Model
 70
     1
 71
     0
 10
0.0
 20
0.0
 11
12.0
 21
9.0
 12
0.0
 22
0.0
 32
0.0
 14
0.0
 24
0.0
 34
0.0
 15
0.0
 25
0.0
 35
0.0
146
0.0
 13
0.0
 23
0.0
 33
0.0
 16
1.0
 26
0.0
 36
0.0
 17
0.0
 27
1.0
 37
0.0
 76
     0
330
DCF2
  0
MLINESTYLE
  5
DCF6
102
{ACAD_REACTORS
330
DCF5
102
}
330
DCF5
100
AcDbMlineStyle
  2
STANDARD
 70
     0
  3

 62
   256
 51
90.0
 52
90.0
 71
     2
 49
0.5
 62
   256
  6
BYLAYER
 49
-0.5
 62
   256
  6
BYLAYER
  0
ACDBPLACEHOLDER
  5
EBBC
102
{ACAD_REACTORS
330
EBBB
102
}
330
EBBB
  0
XRECORD
  5
1596D
102
{ACAD_REACTORS
330
15963
102
}
330
15963
100
AcDbXrecord
280
     1
 90
        0
  0
XRECORD
  5
15971
102
{ACAD_REACTORS
330
15963
102
}
330
15963
100
AcDbXrecord
280
     1
1000
DSTYLE
1002
{
1070
   179
 70
     2
1070
   279
 70
     2
1002
}
  0
XRECORD
  5
1596E
102
{ACAD_REACTORS
330
15963
102
}
330
15963
100
AcDbXrecord
280
     1
  1
{B88EE4EA-09A3-11D6-AAD2-00C04F189418}
  0
XRECORD
  5
15966
102
{ACAD_REACTORS
330
15963
102
}
330
15963
100
AcDbXrecord
280
     1
  1

  0
XRECORD
  5
1596C
102
{ACAD_REACTORS
330
15963
102
}
330
15963
100
AcDbXrecord
280
     1
 90
        0
  0
XRECORD
  5
15968
102
{ACAD_REACTORS
330
15963
102
}
330
15963
100
AcDbXrecord
280
     1
340
EBBD
  0
XRECORD
  5
1596B
102
{ACAD_REACTORS
330
15963
102
}
330
15963
100
AcDbXrecord
280
     1
 90
    10781
  0
XRECORD
  5
15969
102
{ACAD_REACTORS
330
15963
102
}
330
15963
100
AcDbXrecord
280
     1
340
EBBE
  0
XRECORD
  5
1596A
102
{ACAD_REACTORS
330
15963
102
}
330
15963
100
AcDbXrecord
280
     1
340
EBBB
  0
XRECORD
  5
15970
102
{ACAD_REACTORS
330
15963
102
}
330
15963
100
AcDbXrecord
280
     1
 40
0.0
  0
XRECORD
  5
15974
102
{ACAD_REACTORS
330
15963
102
}
330
15963
100
AcDbXrecord
280
     1
340
0
  0
XRECORD
  5
1597A
102
{ACAD_REACTORS
330
15963
102
}
330
15963
100
AcDbXrecord
280
     1
 10
0.0
 20
0.0
 30
0.0
  0
XRECORD
  5
15976
102
{ACAD_REACTORS
330
15963
102
}
330
15963
100
AcDbXrecord
280
     1
 10
0.0
 20
0.0
 30
0.0
  0
XRECORD
  5
15979
102
{ACAD_REACTORS
330
15963
102
}
330
15963
100
AcDbXrecord
280
     1
 10
0.0
 20
0.0
 30
0.0
  0
XRECORD
  5
15977
102
{ACAD_REACTORS
330
15963
102
}
330
15963
100
AcDbXrecord
280
     1
 10
0.0
 20
0.0
 30
0.0
  0
XRECORD
  5
15978
102
{ACAD_REACTORS
330
15963
102
}
330
15963
100
AcDbXrecord
280
     1
 10
0.0
 20
0.0
 30
0.0
  0
XRECORD
  5
15975
102
{ACAD_REACTORS
330
15963
102
}
330
15963
100
AcDbXrecord
280
     1
 10
0.0
 20
0.0
 30
0.0
  0
XRECORD
  5
15972
102
{ACAD_REACTORS
330
15963
102
}
330
15963
100
AcDbXrecord
280
     1
340
0
  0
XRECORD
  5
15973
102
{ACAD_REACTORS
330
15963
102
}
330
15963
100
AcDbXrecord
280
     1
 70
     0
  0
XRECORD
  5
15967
102
{ACAD_REACTORS
330
15963
102
}
330
15963
100
AcDbXrecord
280
     1
  1

  0
XRECORD
  5
15964
102
{ACAD_REACTORS
330
15963
102
}
330
15963
100
AcDbXrecord
280
     1
 90
        1
  0
XRECORD
  5
15965
102
{ACAD_REACTORS
330
15963
102
}
330
15963
100
AcDbXrecord
280
     1
 90
       70
  0
XRECORD
  5
1597D
102
{ACAD_REACTORS
330
15963
102
}
330
15963
100
AcDbXrecord
280
     1
340
0
  0
XRECORD
  5
15983
102
{ACAD_REACTORS
330
15963
102
}
330
15963
100
AcDbXrecord
280
     1
 10
0.0
 20
0.0
 30
0.0
  0
XRECORD
  5
1597F
102
{ACAD_REACTORS
330
15963
102
}
330
15963
100
AcDbXrecord
280
     1
 10
0.0
 20
0.0
 30
0.0
  0
XRECORD
  5
15982
102
{ACAD_REACTORS
330
15963
102
}
330
15963
100
AcDbXrecord
280
     1
 10
0.0
 20
0.0
 30
0.0
  0
XRECORD
  5
15980
102
{ACAD_REACTORS
330
15963
102
}
330
15963
100
AcDbXrecord
280
     1
 10
0.0
 20
0.0
 30
0.0
  0
XRECORD
  5
15981
102
{ACAD_REACTORS
330
15963
102
}
330
15963
100
AcDbXrecord
280
     1
 10
0.0
 20
0.0
 30
0.0
  0
XRECORD
  5
1597E
102
{ACAD_REACTORS
330
15963
102
}
330
15963
100
AcDbXrecord
280
     1
 10
0.0
 20
0.0
 30
0.0
  0
XRECORD
  5
1597B
102
{ACAD_REACTORS
330
15963
102
}
330
15963
100
AcDbXrecord
280
     1
340
0
  0
XRECORD
  5
1597C
102
{ACAD_REACTORS
330
15963
102
}
330
15963
100
AcDbXrecord
280
     1
 70
     0
  0
XRECORD
  5
1596F
102
{ACAD_REACTORS
330
15963
102
}
330
15963
100
AcDbXrecord
280
     1
  1
{F636EC74-D3CD-431E-A5A9-347D81508C6D}
  0
DICTIONARYVAR
  5
DD3B
102
{ACAD_REACTORS
330
DD3A
102
}
330
DD3A
100
DictionaryVariables
280
     0
  1
0
  0
DICTIONARYVAR
  5
EC17
102
{ACAD_REACTORS
330
DD3A
102
}
330
DD3A
100
DictionaryVariables
280
     0
  1
1
  0
DICTIONARYVAR
  5
E79F
102
{ACAD_REACTORS
330
DD3A
102
}
330
DD3A
100
DictionaryVariables
280
     0
  1
96
  0
ENDSEC
  0
EOF
