  0
SECTION
  2
HEADER
  9
$ACADVER
  1
AC1015
  9
$ACADMAINTVER
 70
    10
  9
$DWGCODEPAGE
  3
ANSI_1252
  9
$INSBASE
 10
0.0
 20
0.0
 30
0.0
  9
$EXTMIN
 10
2747.120250934941
 20
137.1439951269766
 30
0.0
  9
$EXTMAX
 10
2905.39625791206
 20
284.0361225224265
 30
0.0
  9
$LIMMIN
 10
0.0
 20
0.0
  9
$LIMMAX
 10
12.0
 20
9.0
  9
$ORTHOMODE
 70
     0
  9
$REGENMODE
 70
     1
  9
$FILLMODE
 70
     1
  9
$QTEXTMODE
 70
     0
  9
$MIRRTEXT
 70
     0
  9
$LTSCALE
 40
1.0
  9
$ATTMODE
 70
     1
  9
$TEXTSIZE
 40
40.0
  9
$TRACEWID
 40
0.05
  9
$TEXTSTYLE
  7
ROMANS
  9
$CLAYER
  8
DIMS
  9
$CELTYPE
  6
BYLAYER
  9
$CECOLOR
 62
   256
  9
$CELTSCALE
 40
1.0
  9
$DISPSILH
 70
     0
  9
$DIMSCALE
 40
1.0
  9
$DIMASZ
 40
2.0
  9
$DIMEXO
 40
4.5
  9
$DIMDLI
 40
0.0
  9
$DIMRND
 40
0.01
  9
$DIMDLE
 40
0.0
  9
$DIMEXE
 40
1.5
  9
$DIMTP
 40
0.0
  9
$DIMTM
 40
0.0
  9
$DIMTXT
 40
1.8
  9
$DIMCEN
 40
0.0
  9
$DIMTSZ
 40
0.0
  9
$DIMTOL
 70
     0
  9
$DIMLIM
 70
     0
  9
$DIMTIH
 70
     0
  9
$DIMTOH
 70
     0
  9
$DIMSE1
 70
     0
  9
$DIMSE2
 70
     0
  9
$DIMTAD
 70
     1
  9
$DIMZIN
 70
    12
  9
$DIMBLK
  1

  9
$DIMASO
 70
     1
  9
$DIMSHO
 70
     1
  9
$DIMPOST
  1

  9
$DIMAPOST
  1

  9
$DIMALT
 70
     0
  9
$DIMALTD
 70
     2
  9
$DIMALTF
 40
25.4
  9
$DIMLFAC
 40
1.0
  9
$DIMTOFL
 70
     0
  9
$DIMTVP
 40
0.0
  9
$DIMTIX
 70
     0
  9
$DIMSOXD
 70
     0
  9
$DIMSAH
 70
     0
  9
$DIMBLK1
  1

  9
$DIMBLK2
  1

  9
$DIMSTYLE
  2
1-1
  9
$DIMCLRD
 70
     0
  9
$DIMCLRE
 70
     0
  9
$DIMCLRT
 70
     0
  9
$DIMTFAC
 40
1.25
  9
$DIMGAP
 40
1.0
  9
$DIMJUST
 70
     0
  9
$DIMSD1
 70
     0
  9
$DIMSD2
 70
     0
  9
$DIMTOLJ
 70
     1
  9
$DIMTZIN
 70
    12
  9
$DIMALTZ
 70
    12
  9
$DIMALTTZ
 70
    12
  9
$DIMUPT
 70
     0
  9
$DIMDEC
 70
     4
  9
$DIMTDEC
 70
     4
  9
$DIMALTU
 70
     2
  9
$DIMALTTD
 70
     2
  9
$DIMTXSTY
  7
ROMANS
  9
$DIMAUNIT
 70
     0
  9
$DIMADEC
 70
     2
  9
$DIMALTRND
 40
0.0
  9
$DIMAZIN
 70
     0
  9
$DIMDSEP
 70
    46
  9
$DIMATFIT
 70
     3
  9
$DIMFRAC
 70
     0
  9
$DIMLDRBLK
  1

  9
$DIMLUNIT
 70
     2
  9
$DIMLWD
 70
    -2
  9
$DIMLWE
 70
    -2
  9
$DIMTMOVE
 70
     2
  9
$LUNITS
 70
     2
  9
$LUPREC
 70
     4
  9
$SKETCHINC
 40
0.1
  9
$FILLETRAD
 40
0.5
  9
$AUNITS
 70
     0
  9
$AUPREC
 70
     0
  9
$MENU
  1
acad
  9
$ELEVATION
 40
0.0
  9
$PELEVATION
 40
0.0
  9
$THICKNESS
 40
0.0
  9
$LIMCHECK
 70
     0
  9
$CHAMFERA
 40
0.5
  9
$CHAMFERB
 40
0.5
  9
$CHAMFERC
 40
0.0
  9
$CHAMFERD
 40
0.0
  9
$SKPOLY
 70
     0
  9
$TDCREATE
 40
2452202.646556944
  9
$TDUCREATE
 40
2452202.646556944
  9
$TDUPDATE
 40
2453060.720868704
  9
$TDUUPDATE
 40
2453060.720868704
  9
$TDINDWG
 40
1.4302596296
  9
$TDUSRTIMER
 40
1.4302594560
  9
$USRTIMER
 70
     1
  9
$ANGBASE
 50
0.0
  9
$ANGDIR
 70
     0
  9
$PDMODE
 70
     3
  9
$PDSIZE
 40
0.0
  9
$PLINEWID
 40
0.0
  9
$SPLFRAME
 70
     0
  9
$SPLINETYPE
 70
     6
  9
$SPLINESEGS
 70
     8
  9
$HANDSEED
  5
15986
  9
$SURFTAB1
 70
     6
  9
$SURFTAB2
 70
     6
  9
$SURFTYPE
 70
     6
  9
$SURFU
 70
     6
  9
$SURFV
 70
     6
  9
$UCSBASE
  2

  9
$UCSNAME
  2

  9
$UCSORG
 10
0.0
 20
0.0
 30
0.0
  9
$UCSXDIR
 10
1.0
 20
0.0
 30
0.0
  9
$UCSYDIR
 10
0.0
 20
1.0
 30
0.0
  9
$UCSORTHOREF
  2

  9
$UCSORTHOVIEW
 70
     0
  9
$UCSORGTOP
 10
0.0
 20
0.0
 30
0.0
  9
$UCSORGBOTTOM
 10
0.0
 20
0.0
 30
0.0
  9
$UCSORGLEFT
 10
0.0
 20
0.0
 30
0.0
  9
$UCSORGRIGHT
 10
0.0
 20
0.0
 30
0.0
  9
$UCSORGFRONT
 10
0.0
 20
0.0
 30
0.0
  9
$UCSORGBACK
 10
0.0
 20
0.0
 30
0.0
  9
$PUCSBASE
  2

  9
$PUCSNAME
  2

  9
$PUCSORG
 10
0.0
 20
0.0
 30
0.0
  9
$PUCSXDIR
 10
1.0
 20
0.0
 30
0.0
  9
$PUCSYDIR
 10
0.0
 20
1.0
 30
0.0
  9
$PUCSORTHOREF
  2

  9
$PUCSORTHOVIEW
 70
     0
  9
$PUCSORGTOP
 10
0.0
 20
0.0
 30
0.0
  9
$PUCSORGBOTTOM
 10
0.0
 20
0.0
 30
0.0
  9
$PUCSORGLEFT
 10
0.0
 20
0.0
 30
0.0
  9
$PUCSORGRIGHT
 10
0.0
 20
0.0
 30
0.0
  9
$PUCSORGFRONT
 10
0.0
 20
0.0
 30
0.0
  9
$PUCSORGBACK
 10
0.0
 20
0.0
 30
0.0
  9
$USERI1
 70
     0
  9
$USERI2
 70
     0
  9
$USERI3
 70
     0
  9
$USERI4
 70
     0
  9
$USERI5
 70
     0
  9
$USERR1
 40
0.0
  9
$USERR2
 40
0.0
  9
$USERR3
 40
0.0
  9
$USERR4
 40
0.0
  9
$USERR5
 40
0.0
  9
$WORLDVIEW
 70
     1
  9
$SHADEDGE
 70
     3
  9
$SHADEDIF
 70
    70
  9
$TILEMODE
 70
     1
  9
$MAXACTVP
 70
    16
  9
$PINSBASE
 10
0.0
 20
0.0
 30
0.0
  9
$PLIMCHECK
 70
     0
  9
$PEXTMIN
 10
1.129916750539944
 20
0.78675001625001
 30
0.0
  9
$PEXTMAX
 10
10.1692507548595
 20
7.080750146250085
 30
0.0
  9
$PLIMMIN
 10
-0.1979161059762549
 20
-0.1979166691697489
  9
$PLIMMAX
 10
11.49708424966165
 20
8.065416268476351
  9
$UNITMODE
 70
     0
  9
$VISRETAIN
 70
     0
  9
$PLINEGEN
 70
     0
  9
$PSLTSCALE
 70
     1
  9
$TREEDEPTH
 70
  3020
  9
$CMLSTYLE
  2
STANDARD
  9
$CMLJUST
 70
     0
  9
$CMLSCALE
 40
1.0
  9
$PROXYGRAPHICS
 70
     1
  9
$MEASUREMENT
 70
     0
  9
$CELWEIGHT
370
    -1
  9
$ENDCAPS
280
     0
  9
$JOINSTYLE
280
     0
  9
$LWDISPLAY
290
     0
  9
$INSUNITS
 70
     0
  9
$HYPERLINKBASE
  1

  9
$STYLESHEET
  1

  9
$XEDIT
290
     1
  9
$CEPSNTYPE
380
     0
  9
$PSTYLEMODE
290
     1
  9
$FINGERPRINTGUID
  2
{B88EE4EA-09A3-11D6-AAD2-00C04F189418}
  9
$VERSIONGUID
  2
{FBA71322-3F7F-415C-9C53-8B3AE6118C0E}
  9
$EXTNAMES
290
     1
  9
$PSVPSCALE
 40
0.0
  9
$OLESTARTUP
290
     0
  0
ENDSEC
  0
SECTION
  2
CLASSES
  0
CLASS
  1
DICTIONARYVAR
  2
AcDbDictionaryVar
  3
AutoCAD 2000
 90
        0
280
     0
281
     0
  0
CLASS
  1
LWPOLYLINE
  2
AcDbPolyline
  3
AutoCAD 2000
 90
    32768
280
     0
281
     1
  0
CLASS
  1
IDBUFFER
  2
AcDbIdBuffer
  3
AutoCAD 2000
 90
    32768
280
     0
281
     0
  0
CLASS
  1
ACDBDICTIONARYWDFLT
  2
AcDbDictionaryWithDefault
  3
AutoCAD 2000
 90
        0
280
     0
281
     0
  0
CLASS
  1
ACDBPLACEHOLDER
  2
AcDbPlaceHolder
  3
AutoCAD 2000
 90
        0
280
     0
281
     0
  0
CLASS
  1
LAYOUT
  2
AcDbLayout
  3
AutoCAD 2000
 90
        0
280
     0
281
     0
  0
CLASS
  1
LONG_TRANSACTION
  2
AcDbLongTransaction
  3
AutoCAD 2000
 90
    32768
280
     0
281
     0
  0
CLASS
  1
LWPOLYLINE
  2
AcDbPolyline
  3
AutoCAD 2000
 90
    32768
280
     0
281
     1
  0
CLASS
  1
HATCH
  2
AcDbHatch
  3
AutoCAD 2000
 90
    32768
280
     0
281
     1
  0
CLASS
  1
XRECORD
  2
AcDbXrecord
  3
AutoCAD 2000
 90
    32768
280
     0
281
     0
  0
ENDSEC
  0
SECTION
  2
TABLES
  0
TABLE
  2
VPORT
  5
DCE3
330
0
100
AcDbSymbolTable
 70
     2
  0
VPORT
  5
15964
330
DCE3
100
AcDbSymbolTableRecord
100
AcDbViewportTableRecord
  2
*Active
 70
     0
 10
0.0
 20
0.0
 11
1.0
 21
1.0
 12
2879.326854758696
 22
218.6498801527533
 13
0.0
 23
0.0
 14
0.5
 24
0.5
 15
0.0
 25
0.0
 16
0.0
 26
0.0
 36
1.0
 17
0.0
 27
0.0
 37
0.0
 40
425.9770958482736
 41
1.52338811630847
 42
50.0
 43
0.0
 44
0.0
 50
0.0
 51
0.0
 71
     8
 72
   100
 73
     1
 74
     1
 75
     0
 76
     0
 77
     0
 78
     0
281
     0
 65
     1
110
0.0
120
0.0
130
0.0
111
1.0
121
0.0
131
0.0
112
0.0
122
1.0
132
0.0
 79
     0
146
0.0
  0
ENDTAB
  0
TABLE
  2
LTYPE
  5
DCE0
330
0
100
AcDbSymbolTable
 70
    26
  0
LTYPE
  5
DCEC
330
DCE0
100
AcDbSymbolTableRecord
100
AcDbLinetypeTableRecord
  2
BYBLOCK
 70
     0
  3

 72
    65
 73
     0
 40
0.0
  0
LTYPE
  5
DCED
330
DCE0
100
AcDbSymbolTableRecord
100
AcDbLinetypeTableRecord
  2
BYLAYER
 70
     0
  3

 72
    65
 73
     0
 40
0.0
  0
LTYPE
  5
DCEE
330
DCE0
100
AcDbSymbolTableRecord
100
AcDbLinetypeTableRecord
  2
CONTINUOUS
 70
     0
  3
Solid line
 72
    65
 73
     0
 40
0.0
  0
LTYPE
  5
DD08
330
DCE0
100
AcDbSymbolTableRecord
100
AcDbLinetypeTableRecord
  2
GRID1_50
 70
     0
  3
________________  __  ________________  __
 72
    65
 73
     4
 40
1800.0
 49
1500.0
 74
     0
 49
-100.0
 74
     0
 49
100.0
 74
     0
 49
-100.0
 74
     0
  0
LTYPE
  5
DD0F
330
DCE0
100
AcDbSymbolTableRecord
100
AcDbLinetypeTableRecord
  2
HIDDEN1_01
 70
     0
  3
__ __ __ __ __ __ __ __ __ __ __ __ __ __ __ __
 72
    65
 73
     2
 40
5.0
 49
3.0
 74
     0
 49
-2.0
 74
     0
  0
ENDTAB
  0
TABLE
  2
LAYER
  5
DCDD
330
0
100
AcDbSymbolTable
 70
    20
  0
LAYER
  5
DCE9
330
DCDD
100
AcDbSymbolTableRecord
100
AcDbLayerTableRecord
  2
0
 70
     0
 62
     7
  6
CONTINUOUS
370
    -3
390
EBBC
  0
LAYER
  5
DD26
330
DCDD
100
AcDbSymbolTableRecord
100
AcDbLayerTableRecord
  2
SHEET
 70
     0
 62
     3
  6
CONTINUOUS
370
    -3
390
EBBC
  0
LAYER
  5
DD29
330
DCDD
100
AcDbSymbolTableRecord
100
AcDbLayerTableRecord
  2
DIMS
 70
     0
 62
     2
  6
CONTINUOUS
370
    -3
390
EBBC
  0
LAYER
  5
DD33
330
DCDD
100
AcDbSymbolTableRecord
100
AcDbLayerTableRecord
  2
DEFPOINTS
 70
     0
 62
     7
  6
CONTINUOUS
290
     0
370
    -3
390
EBBC
  0
LAYER
  5
EA1A
330
DCDD
100
AcDbSymbolTableRecord
100
AcDbLayerTableRecord
  2
ASHADE
 70
     4
 62
     7
  6
CONTINUOUS
370
    -3
390
EBBC
  0
LAYER
  5
15885
330
DCDD
100
AcDbSymbolTableRecord
100
AcDbLayerTableRecord
  2
Ancontension
 70
     0
 62
     1
  6
CONTINUOUS
370
    -3
390
EBBC
  0
ENDTAB
  0
TABLE
  2
STYLE
  5
DCDE
330
0
100
AcDbSymbolTable
 70
     3
  0
STYLE
  5
DCEA
330
DCDE
100
AcDbSymbolTableRecord
100
AcDbTextStyleTableRecord
  2
STANDARD
 70
     0
 40
0.0
 41
1.0
 50
0.0
 71
     0
 42
0.2
  3
txt
  4

  0
STYLE
  5
DD02
330
DCDE
100
AcDbSymbolTableRecord
100
AcDbTextStyleTableRecord
  2
ROMANS
 70
     0
 40
0.0
 41
1.0
 50
0.0
 71
     0
 42
40.0
  3
romans
  4

  0
ENDTAB
  0
TABLE
  2
VIEW
  5
DCE1
330
0
100
AcDbSymbolTable
 70
     0
  0
ENDTAB
  0
TABLE
  2
UCS
  5
DCE2
330
0
100
AcDbSymbolTable
 70
     0
  0
ENDTAB
  0
TABLE
  2
APPID
  5
DCE4
330
0
100
AcDbSymbolTable
 70
     6
  0
APPID
  5
DCEB
330
DCE4
100
AcDbSymbolTableRecord
100
AcDbRegAppTableRecord
  2
ACAD
 70
     0
  0
APPID
  5
E64D
330
DCE4
100
AcDbSymbolTableRecord
100
AcDbRegAppTableRecord
  2
AVE_FINISH
 70
     0
  0
APPID
  5
EA18
330
DCE4
100
AcDbSymbolTableRecord
100
AcDbRegAppTableRecord
  2
AVE_RENDER
 70
     0
  0
APPID
  5
EA19
330
DCE4
100
AcDbSymbolTableRecord
100
AcDbRegAppTableRecord
  2
AVE_ENTITY_MATERIAL
 70
     0
  0
APPID
  5
EA26
330
DCE4
100
AcDbSymbolTableRecord
100
AcDbRegAppTableRecord
  2
AVE_MATERIAL
 70
     0
  0
APPID
  5
EA27
330
DCE4
100
AcDbSymbolTableRecord
100
AcDbRegAppTableRecord
  2
AVE_GLOBAL
 70
     0
  0
ENDTAB
  0
TABLE
  2
DIMSTYLE
  5
DCE5
330
0
100
AcDbSymbolTable
 70
     8
100
AcDbDimStyleTable
 71
     0
  0
DIMSTYLE
105
DD1C
330
DCE5
100
AcDbSymbolTableRecord
100
AcDbDimStyleTableRecord
  2
1-1
 70
     0
 41
2.0
 42
4.5
 43
0.0
 44
1.5
 45
0.01
 73
     0
 74
     0
 77
     1
 78
    12
140
1.8
141
0.0
146
1.25
147
1.0
179
     2
279
     2
284
    12
285
    12
286
    12
340
DD02
  0
ENDTAB
  0
TABLE
  2
BLOCK_RECORD
  5
DCDC
330
0
100
AcDbSymbolTable
 70
    24
  0
BLOCK_RECORD
  5
DCF2
102
{ACAD_XDICTIONARY
360
1586E
102
}
330
DCDC
100
AcDbSymbolTableRecord
100
AcDbBlockTableRecord
  2
*MODEL_SPACE
340
EBBF
  0
BLOCK_RECORD
  5
10777
102
{ACAD_XDICTIONARY
360
15847
102
}
330
DCDC
100
AcDbSymbolTableRecord
100
AcDbBlockTableRecord
  2
*Paper_Space
340
10778
  0
BLOCK_RECORD
  5
EA1B
330
DCDC
100
AcDbSymbolTableRecord
100
AcDbBlockTableRecord
  2
AVE_RENDER
340
0
102
{BLKREFS
331
EA1E
331
EA1F
331
EA20
331
EA21
331
EA22
331
EA23
331
EA24
331
EA25
102
}
  0
BLOCK_RECORD
  5
EA28
330
DCDC
100
AcDbSymbolTableRecord
100
AcDbBlockTableRecord
  2
AVE_GLOBAL
340
0
102
{BLKREFS
331
EA2B
102
}
  0
ENDTAB
  0
ENDSEC
  0
SECTION
  2
BLOCKS
  0
BLOCK
  5
DD38
330
DCF2
100
AcDbEntity
  8
0
100
AcDbBlockBegin
  2
*MODEL_SPACE
 70
     0
 10
0.0
 20
0.0
 30
0.0
  3
*MODEL_SPACE
  1

  0
ENDBLK
  5
DD39
330
DCF2
100
AcDbEntity
  8
0
100
AcDbBlockEnd
  0
BLOCK
  5
10779
330
10777
100
AcDbEntity
 67
     1
  8
0
100
AcDbBlockBegin
  2
*Paper_Space
 70
     0
 10
0.0
 20
0.0
 30
0.0
  3
*Paper_Space
  1

  0
ENDBLK
  5
1077A
330
10777
100
AcDbEntity
 67
     1
  8
0
100
AcDbBlockEnd
  0
BLOCK
  5
EA1C
330
EA1B
100
AcDbEntity
  8
ASHADE
100
AcDbBlockBegin
  2
AVE_RENDER
 70
     0
 10
0.0
 20
0.0
 30
0.0
  3
AVE_RENDER
  1
AVE_RENDER
  0
ENDBLK
  5
EA1D
330
EA1B
100
AcDbEntity
  8
0
100
AcDbBlockEnd
  0
BLOCK
  5
EA29
330
EA28
100
AcDbEntity
  8
ASHADE
100
AcDbBlockBegin
  2
AVE_GLOBAL
 70
     0
 10
0.0
 20
0.0
 30
0.0
  3
AVE_GLOBAL
  1
AVE_GLOBAL
  0
ENDBLK
  5
EA2A
330
EA28
100
AcDbEntity
  8
0
100
AcDbBlockEnd
  0
ENDSEC
  0
SECTION
  2
ENTITIES
  0
INSERT
  5
EA1E
330
DCF2
100
AcDbEntity
  8
ASHADE
 62
     1
100
AcDbBlockReference
  2
AVE_RENDER
 10
0.0
 20
0.0
 30
0.0
1001
AVE_RENDER
1002
{
1070
     7
1000
Pref
1070
    50
1070
    20
1070
     1
1070
     0
1000

1070
    10
1070
     1
1070
    10
1040
1.0
1070
     1
1040
0.3
1040
0.7
1040
0.0
1040
10.0
1010
-1.0
1020
-1.0
1030
-1.0
1040
0.3
1070
    49
1070
     0
1070
     0
1010
1.0
1020
1.0
1030
1.0
1040
45.0
1070
     1
1070
     0
1000
WCS
1040
0.0
1070
     0
1040
10.0
1002
}
  0
INSERT
  5
EA1F
330
DCF2
100
AcDbEntity
  8
ASHADE
 62
     3
100
AcDbBlockReference
  2
AVE_RENDER
 10
0.0
 20
0.0
 30
0.0
1001
AVE_RENDER
1002
{
1070
     0
1000
Full Opt
1070
     0
1070
     1
1070
     1
1070
     1
1070
     0
1070
     0
1070
     0
1070
     1
1070
     1
1040
0.0001
1040
0.0001
1002
}
  0
INSERT
  5
EA20
330
DCF2
100
AcDbEntity
  8
ASHADE
 62
     4
100
AcDbBlockReference
  2
AVE_RENDER
 10
0.0
 20
0.0
 30
0.0
1001
AVE_RENDER
1002
{
1070
     0
1000
Quick Opt
1070
     0
1070
     1
1070
     1
1070
     1
1070
     0
1070
     0
1070
     1
1002
}
  0
INSERT
  5
EA21
330
DCF2
100
AcDbEntity
  8
ASHADE
 62
     5
100
AcDbBlockReference
  2
AVE_RENDER
 10
0.0
 20
0.0
 30
0.0
1001
AVE_RENDER
1002
{
1070
     1
1000
Scanl Opt
1070
     2
1070
     0
1070
     2
1040
2.0
1040
4.0
1070
     0
1070
     1
1070
     0
1040
0.03
1002
}
  0
INSERT
  5
EA22
330
DCF2
100
AcDbEntity
  8
ASHADE
 62
     6
100
AcDbBlockReference
  2
AVE_RENDER
 10
0.0
 20
0.0
 30
0.0
1001
AVE_RENDER
1002
{
1070
     2
1000
Raytr Opt
1070
     2
1070
     0
1070
     2
1040
2.0
1040
4.0
1070
     0
1070
     1
1070
     1
1040
0.03
1070
     3
1040
0.03
1002
}
  0
INSERT
  5
EA23
330
DCF2
100
AcDbEntity
  8
ASHADE
 62
     7
100
AcDbBlockReference
  2
AVE_RENDER
 10
0.0
 20
0.0
 30
0.0
1001
AVE_RENDER
1002
{
1070
     0
1000
RFile Opt
1070
     1
1070
   640
1070
   480
1070
 10000
1070
     1
1070
     8
1070
     8
1070
     0
1070
     0
1070
     0
1070
     0
1070
     0
1070
     0
1070
     0
1002
}
  0
INSERT
  5
EA24
330
DCF2
100
AcDbEntity
  8
ASHADE
 62
     8
100
AcDbBlockReference
  2
AVE_RENDER
 10
0.0
 20
0.0
 30
0.0
1001
AVE_RENDER
1002
{
1070
     0
1000
Fog Opt
1070
     0
1070
     0
1040
0.0
1040
1.0
1040
0.0
1040
1.0
1010
0.5
1020
0.5
1030
0.5
1002
}
  0
INSERT
  5
EA25
330
DCF2
100
AcDbEntity
  8
ASHADE
 62
     9
100
AcDbBlockReference
  2
AVE_RENDER
 10
0.0
 20
0.0
 30
0.0
1001
AVE_RENDER
1002
{
1070
     0
1000
BG Opt
1070
     0
1070
     0
1010
1.0
1020
1.0
1030
1.0
1010
1.0
1020
0.0
1030
0.0
1010
0.0
1020
1.0
1030
0.0
1010
0.0
1020
0.0
1030
1.0
1040
0.5
1040
0.33
1040
0.0
1000

1070
     1
1000

1070
     1
1070
     1
1040
1.0
1040
1.0
1040
0.0
1040
0.0
1070
     0
1002
}
  0
INSERT
  5
EA2B
330
DCF2
100
AcDbEntity
  8
ASHADE
 62
     1
100
AcDbBlockReference
  2
AVE_GLOBAL
 10
0.0
 20
0.0
 30
0.0
1001
AVE_MATERIAL
1002
{
1000
*GLOBAL*
1000
1
1000
Global finish.
1002
{
1002
}
1002
{
1070
    63
1002
{
1002
{
1010
-1.0
1020
-1.0
1030
-1.0
1002
}
1040
0.1000000014901161
1000

1040
0.0
1002
{
1002
}
1040
0.0
1002
{
1002
}
1040
0.0
1002
}
1002
{
1002
{
1010
-1.0
1020
-1.0
1030
-1.0
1002
}
1040
0.6999999880790711
1000

1040
0.0
1002
{
1002
}
1040
0.0
1002
{
1002
}
1040
0.0
1002
}
1002
{
1002
{
1010
-1.0
1020
-1.0
1030
-1.0
1002
}
1040
0.2000000029802322
1000

1040
0.0
1002
{
1002
}
1040
0.0
1002
{
1002
}
1040
0.0
1002
}
1002
{
1070
     0
1002
{
1070
     1
1002
{
1040
1.0
1040
1.0
1000

1040
0.0
1002
{
1002
}
1040
0.0
1002
{
1002
}
1040
0.0
1002
}
1002
}
1040
1.0
1040
0.0
1040
0.0
1002
}
1002
{
1040
1.0
1040
1.0
1000

1040
0.0
1002
{
1002
}
1040
0.0
1002
{
1002
}
1040
0.0
1002
}
1002
{
1040
0.5
1040
1.0
1000

1040
0.0
1002
{
1002
}
1040
0.0
1002
{
1002
}
1040
0.0
1002
}
1002
{
1070
     0
1040
0.0
1002
{
1002
}
1040
1.0
1002
{
1002
}
1040
0.0
1002
}
1002
{
1040
0.0
1002
{
1002
{
1010
0.0
1020
0.0
1030
0.0
1002
}
1040
1.0
1000

1040
0.0
1002
{
1002
}
1040
0.0
1002
{
1002
}
1040
0.0
1002
}
1002
}
1002
{
1002
{
1070
     1
1002
{
1040
0.0
1040
1.0
1000

1040
0.0
1002
{
1002
}
1040
0.0
1002
{
1002
}
1040
0.0
1002
}
1002
}
1040
0.0
1002
{
1002
}
1010
1.0
1020
0.0
1030
0.0
1010
0.0
1020
1.0
1030
0.0
1010
0.0
1020
0.0
1030
1.0
1070
     0
1002
}
1002
{
1002
{
1040
1.0
1040
1.0
1002
{
1070
     1
1002
{
1040
1.0
1040
1.0
1000

1040
0.0
1002
{
1002
}
1040
0.0
1002
{
1002
}
1040
0.0
1002
}
1002
}
1002
}
1070
     0
1040
0.0
1002
{
1002
}
1002
}
1002
{
1002
}
1002
}
1002
{
1071
        3
1070
     3
1070
     0
1002
{
1070
     2
1070
     0
1070
     0
1040
0.0
1002
}
1070
     0
1070
     2
1002
{
1002
}
1002
}
1002
{
1040
8030.0
1040
190.3000030517578
1040
0.3050000071525574
1040
228.0
1040
545.0
1040
14.0
1040
17.39999961853027
1040
0.4560000002384186
1002
}
1002
}
  0
LINE
  5
142ED
330
DCF2
100
AcDbEntity
  8
Ancontension
  6
HIDDEN1_01
100
AcDbLine
 10
2886.258254423501
 20
169.7586862485744
 30
0.0
 11
2886.258254423501
 21
147.7586862485743
 31
0.0
  0
LINE
  5
142EE
330
DCF2
100
AcDbEntity
  8
Ancontension
  6
HIDDEN1_01
100
AcDbLine
 10
2766.258254423501
 20
169.7586862485744
 30
0.0
 11
2766.258254423501
 21
147.7586862485744
 31
0.0
  0
LINE
  5
142EF
330
DCF2
100
AcDbEntity
  8
Ancontension
100
AcDbLine
 10
2785.258254423499
 20
178.589603367759
 30
0.0
 11
2785.258254423501
 21
138.9277691293903
 31
0.0
  0
LINE
  5
142F0
330
DCF2
100
AcDbEntity
  8
Ancontension
100
AcDbLine
 10
2747.258254423501
 20
173.2111043929529
 30
0.0
 11
2747.258254423501
 21
144.306268104196
 31
0.0
  0
LINE
  5
142F1
330
DCF2
100
AcDbEntity
  8
Ancontension
100
AcDbLine
 10
2785.258254423501
 20
178.8106375722029
 30
0.0
 11
2785.258254423501
 21
138.7067349249462
 31
0.0
  0
LINE
  5
142F2
330
DCF2
100
AcDbEntity
  8
Ancontension
100
AcDbLine
 10
2867.258254423502
 20
178.8106375722029
 30
0.0
 11
2867.258254423501
 21
138.7067349249459
 31
0.0
  0
LINE
  5
142F3
330
DCF2
100
AcDbEntity
  8
Ancontension
100
AcDbLine
 10
2867.258254423501
 20
178.5896033677588
 30
0.0
 11
2867.258254423501
 21
138.9277691293901
 31
0.0
  0
LINE
  5
142F4
330
DCF2
100
AcDbEntity
  8
Ancontension
100
AcDbLine
 10
2905.258254423501
 20
173.2111043929528
 30
0.0
 11
2905.258254423501
 21
144.306268104196
 31
0.0
  0
ELLIPSE
  5
142F5
330
DCF2
100
AcDbEntity
  8
Ancontension
100
AcDbEllipse
 10
2888.971182433651
 20
146.3843175778098
 30
0.0
 11
-2.25
 21
0.0
 31
0.0
210
0.0
220
0.0
230
-1.0
 40
0.7071067811865659
 41
0.0
 42
6.283185307179585
  0
LINE
  5
142F6
330
DCF2
100
AcDbEntity
  8
Ancontension
  6
HIDDEN1_01
100
AcDbLine
 10
2886.258254423499
 20
147.7586862485743
 30
0.0
 11
2905.258254423499
 21
147.7586862485743
 31
0.0
  0
LINE
  5
142F7
330
DCF2
100
AcDbEntity
  8
Ancontension
100
AcDbLine
 10
2904.617590844306
 20
143.5642805388786
 30
0.0
 11
2868.117590844306
 21
138.1857815640727
 31
0.0
  0
ELLIPSE
  5
142F8
330
DCF2
100
AcDbEntity
  8
Ancontension
100
AcDbEllipse
 10
2763.545326413352
 20
146.3843175778098
 30
0.0
 11
2.25
 21
0.0
 31
0.0
210
0.0
220
0.0
230
1.0
 40
0.7071067811865659
 41
0.0
 42
6.283185307179585
  0
LINE
  5
142F9
330
DCF2
100
AcDbEntity
  8
Ancontension
  6
HIDDEN1_01
100
AcDbLine
 10
2766.258254423501
 20
147.7586862485744
 30
0.0
 11
2747.258254423501
 21
147.7586862485744
 31
0.0
  0
LINE
  5
142FA
330
DCF2
100
AcDbEntity
  8
Ancontension
100
AcDbLine
 10
2747.898918002697
 20
143.5642805388788
 30
0.0
 11
2784.398918002696
 21
138.1857815640728
 31
0.0
  0
ARC
  5
142FB
330
DCF2
100
AcDbEntity
  8
Ancontension
100
AcDbCircle
 10
2748.008254423501
 20
144.306268104196
 30
0.0
 40
0.75
100
AcDbArc
 50
180.0
 51
261.6174404237763
  0
LINE
  5
142FC
330
DCF2
100
AcDbEntity
  8
Ancontension
  6
HIDDEN1_01
100
AcDbLine
 10
2785.258254423501
 20
148.7586862485744
 30
0.0
 11
2766.258254423501
 21
148.7586862485744
 31
0.0
  0
ARC
  5
142FD
330
DCF2
100
AcDbEntity
  8
Ancontension
100
AcDbCircle
 10
2784.508254423501
 20
138.9277691293903
 30
0.0
 40
0.7500000000001137
100
AcDbArc
 50
261.6174404237765
 51
359.9999999999933
  0
LINE
  5
142FE
330
DCF2
100
AcDbEntity
  8
Ancontension
100
AcDbLine
 10
2793.841589344213
 20
154.7586862485744
 30
0.0
 11
2858.674919502798
 21
154.7586862485744
 31
0.0
  0
LINE
  5
142FF
330
DCF2
100
AcDbEntity
  8
Ancontension
100
AcDbLine
 10
2793.841589344213
 20
162.7586862485745
 30
0.0
 11
2858.674919502798
 21
162.7586862485745
 31
0.0
  0
LINE
  5
14300
330
DCF2
100
AcDbEntity
  8
Ancontension
  6
HIDDEN1_01
100
AcDbLine
 10
2831.2582544235
 20
148.7586862485754
 30
0.0
 11
2867.258254423501
 21
148.7586862485754
 31
0.0
  0
LINE
  5
14301
330
DCF2
100
AcDbEntity
  8
Ancontension
100
AcDbLine
 10
2793.841589344197
 20
137.2586862485757
 30
0.0
 11
2858.674919502798
 21
137.2586862485746
 31
0.0
  0
LINE
  5
14302
330
DCF2
100
AcDbEntity
  8
Ancontension
  6
HIDDEN1_01
100
AcDbLine
 10
2785.258254423501
 20
148.7586862485754
 30
0.0
 11
2821.258254423501
 21
148.7586862485754
 31
0.0
  0
ARC
  5
14303
330
DCF2
100
AcDbEntity
  8
Ancontension
100
AcDbCircle
 10
2793.841589344197
 20
180.2586862485757
 30
0.0
 40
43.0
100
AcDbArc
 50
261.6174404237763
 51
270.0
  0
LINE
  5
14304
330
DCF2
100
AcDbEntity
  8
Ancontension
100
AcDbLine
 10
2785.898918002695
 20
137.9647473596289
 30
0.0
 11
2787.572967884717
 21
137.7180658370472
 31
0.0
  0
ARC
  5
14305
330
DCF2
100
AcDbEntity
  8
Ancontension
100
AcDbCircle
 10
2786.008254423501
 20
138.7067349249462
 30
0.0
 40
0.75
100
AcDbArc
 50
180.0
 51
261.6174404237763
  0
LINE
  5
14306
330
DCF2
100
AcDbEntity
  8
Ancontension
100
AcDbLine
 10
2793.841589344213
 20
162.7586862485745
 30
0.0
 11
2793.841589344213
 21
154.7586862485744
 31
0.0
  0
LINE
  5
14307
330
DCF2
100
AcDbEntity
  8
Ancontension
  6
HIDDEN1_01
100
AcDbLine
 10
2831.2582544235
 20
150.008686248575
 30
0.0
 11
2831.2582544235
 21
148.7586862485754
 31
0.0
  0
LINE
  5
14308
330
DCF2
100
AcDbEntity
  8
Ancontension
  6
HIDDEN1_01
100
AcDbLine
 10
2821.258254423501
 20
150.0086862485751
 30
0.0
 11
2821.258254423501
 21
148.7586862485754
 31
0.0
  0
LINE
  5
14309
330
DCF2
100
AcDbEntity
  8
Ancontension
  6
HIDDEN1_01
100
AcDbLine
 10
2821.258254423501
 20
150.0086862485751
 30
0.0
 11
2831.2582544235
 21
150.0086862485749
 31
0.0
  0
LINE
  5
1430A
330
DCF2
100
AcDbEntity
  8
Ancontension
  6
HIDDEN1_01
100
AcDbLine
 10
2822.508254423505
 20
162.7586862485745
 30
0.0
 11
2822.508254423505
 21
154.7586862485744
 31
0.0
  0
LINE
  5
1430B
330
DCF2
100
AcDbEntity
  8
Ancontension
  6
HIDDEN1_01
100
AcDbLine
 10
2830.008254423505
 20
162.7586862485745
 30
0.0
 11
2830.008254423505
 21
154.7586862485744
 31
0.0
  0
ARC
  5
1430D
330
DCF2
100
AcDbEntity
  8
Ancontension
100
AcDbCircle
 10
2858.674919502798
 20
180.2586862485744
 30
0.0
 40
43.0
100
AcDbArc
 50
270.0
 51
278.3825595762236
  0
LINE
  5
1430E
330
DCF2
100
AcDbEntity
  8
Ancontension
100
AcDbLine
 10
2866.617590844304
 20
137.9647473596286
 30
0.0
 11
2864.943540962277
 21
137.7180658370463
 31
0.0
  0
ARC
  5
1430F
330
DCF2
100
AcDbEntity
  8
Ancontension
100
AcDbCircle
 10
2866.508254423501
 20
138.7067349249459
 30
0.0
 40
0.75
100
AcDbArc
 50
278.3825595762236
 51
0.0
  0
LINE
  5
14310
330
DCF2
100
AcDbEntity
  8
Ancontension
100
AcDbLine
 10
2858.674919502798
 20
162.7586862485745
 30
0.0
 11
2858.674919502798
 21
154.7586862485744
 31
0.0
  0
LINE
  5
14311
330
DCF2
100
AcDbEntity
  8
Ancontension
  6
HIDDEN1_01
100
AcDbLine
 10
2867.258254423501
 20
148.7586862485744
 30
0.0
 11
2886.258254423499
 21
148.7586862485744
 31
0.0
  0
ARC
  5
14312
330
DCF2
100
AcDbEntity
  8
Ancontension
100
AcDbCircle
 10
2868.008254423502
 20
138.9277691293901
 30
0.0
 40
0.7500000000001137
100
AcDbArc
 50
180.0000000000064
 51
278.3825595762233
  0
ARC
  5
14313
330
DCF2
100
AcDbEntity
  8
Ancontension
100
AcDbCircle
 10
2904.508254423501
 20
144.306268104196
 30
0.0
 40
0.75
100
AcDbArc
 50
278.3825595762236
 51
0.0
  0
ELLIPSE
  5
14314
330
DCF2
100
AcDbEntity
  8
Ancontension
100
AcDbEllipse
 10
2888.971182433651
 20
171.1330549193389
 30
0.0
 11
-2.25
 21
0.0
 31
0.0
210
0.0
220
0.0
230
1.0
 40
0.7071067811865659
 41
0.0
 42
6.283185307179585
  0
ELLIPSE
  5
14315
330
DCF2
100
AcDbEntity
  8
Ancontension
100
AcDbEllipse
 10
2888.971182433651
 20
222.7156515208458
 30
0.0
 11
-2.25
 21
0.0
 31
0.0
210
0.0
220
0.0
230
-1.0
 40
0.7071067811865659
 41
0.0
 42
6.283185307179585
  0
ELLIPSE
  5
14316
330
DCF2
100
AcDbEntity
  8
Ancontension
100
AcDbEllipse
 10
2888.971182433651
 20
247.464388862375
 30
0.0
 11
-2.25
 21
0.0
 31
0.0
210
0.0
220
0.0
230
1.0
 40
0.7071067811865659
 41
0.0
 42
6.283185307179585
  0
LINE
  5
14318
330
DCF2
100
AcDbEntity
  8
Ancontension
100
AcDbLine
 10
2904.617590844306
 20
219.8956144819145
 30
0.0
 11
2868.117590844306
 21
214.5171155071086
 31
0.0
  0
LINE
  5
14319
330
DCF2
100
AcDbEntity
  8
Ancontension
  6
HIDDEN1_01
100
AcDbLine
 10
2886.258254423499
 20
224.0900201916104
 30
0.0
 11
2905.258254423499
 21
224.0900201916104
 31
0.0
  0
LINE
  5
1431A
330
DCF2
100
AcDbEntity
  8
Ancontension
  6
HIDDEN1_01
100
AcDbLine
 10
2886.258254423501
 20
246.0900201916103
 30
0.0
 11
2905.258254423499
 21
246.0900201916103
 31
0.0
  0
LINE
  5
1431B
330
DCF2
100
AcDbEntity
  8
Ancontension
100
AcDbLine
 10
2904.617590844306
 20
173.9530919582703
 30
0.0
 11
2868.117590844306
 21
179.3315909330759
 31
0.0
  0
LINE
  5
1431C
330
DCF2
100
AcDbEntity
  8
Ancontension
  6
HIDDEN1_01
100
AcDbLine
 10
2886.258254423501
 20
169.7586862485744
 30
0.0
 11
2905.258254423499
 21
169.7586862485744
 31
0.0
  0
LINE
  5
1431D
330
DCF2
100
AcDbEntity
  8
Ancontension
100
AcDbLine
 10
2904.617590844306
 20
250.2844259013063
 30
0.0
 11
2868.117590844306
 21
255.6629248761121
 31
0.0
  0
LINE
  5
14320
330
DCF2
100
AcDbEntity
  8
Ancontension
100
AcDbLine
 10
2858.674919502798
 20
256.5900201916117
 30
0.0
 11
2834.743535797744
 21
280.521403896665
 31
0.0
  0
LINE
  5
14321
330
DCF2
100
AcDbEntity
  8
Ancontension
100
AcDbLine
 10
2793.841589344213
 20
256.5900201916117
 30
0.0
 11
2817.772973049267
 21
280.521403896665
 31
0.0
  0
CIRCLE
  5
14322
330
DCF2
100
AcDbEntity
  8
Ancontension
100
AcDbCircle
 10
2826.258254423505
 20
272.0361225224265
 30
0.0
 40
3.75
  0
LINE
  5
14326
330
DCF2
100
AcDbEntity
  8
Ancontension
100
AcDbLine
 10
2747.898918002697
 20
219.8956144819149
 30
0.0
 11
2784.398918002696
 21
214.5171155071087
 31
0.0
  0
LINE
  5
14327
330
DCF2
100
AcDbEntity
  8
Ancontension
100
AcDbLine
 10
2785.258254423499
 20
254.9209373107951
 30
0.0
 11
2785.258254423501
 21
215.2591030724263
 31
0.0
  0
ELLIPSE
  5
14328
330
DCF2
100
AcDbEntity
  8
Ancontension
100
AcDbEllipse
 10
2763.545326413352
 20
171.1330549193391
 30
0.0
 11
2.25
 21
0.0
 31
0.0
210
0.0
220
0.0
230
-1.0
 40
0.7071067811865659
 41
0.0
 42
6.283185307179585
  0
LINE
  5
14329
330
DCF2
100
AcDbEntity
  8
Ancontension
100
AcDbLine
 10
2747.898918002696
 20
173.9530919582703
 30
0.0
 11
2784.398918002696
 21
179.3315909330763
 31
0.0
  0
LINE
  5
1432A
330
DCF2
100
AcDbEntity
  8
Ancontension
  6
HIDDEN1_01
100
AcDbLine
 10
2766.258254423501
 20
169.7586862485744
 30
0.0
 11
2747.258254423501
 21
169.7586862485744
 31
0.0
  0
ARC
  5
1432B
330
DCF2
100
AcDbEntity
  8
Ancontension
100
AcDbCircle
 10
2748.008254423501
 20
173.2111043929529
 30
0.0
 40
0.75
100
AcDbArc
 50
98.38255957622365
 51
180.0
  0
LINE
  5
1432C
330
DCF2
100
AcDbEntity
  8
Ancontension
  6
HIDDEN1_01
100
AcDbLine
 10
2785.258254423499
 20
168.7586862485744
 30
0.0
 11
2766.258254423501
 21
168.7586862485744
 31
0.0
  0
ARC
  5
1432D
330
DCF2
100
AcDbEntity
  8
Ancontension
100
AcDbCircle
 10
2784.508254423499
 20
178.589603367759
 30
0.0
 40
0.75
100
AcDbArc
 50
0.0
 51
98.38255957622365
  0
ARC
  5
1432E
330
DCF2
100
AcDbEntity
  8
Ancontension
100
AcDbCircle
 10
2784.508254423501
 20
215.2591030724263
 30
0.0
 40
0.7500000000001137
100
AcDbArc
 50
261.6174404237765
 51
359.9999999999933
  0
ELLIPSE
  5
1432F
330
DCF2
100
AcDbEntity
  8
Ancontension
100
AcDbEllipse
 10
2763.545326413352
 20
247.464388862375
 30
0.0
 11
2.25
 21
0.0
 31
0.0
210
0.0
220
0.0
230
-1.0
 40
0.7071067811865659
 41
0.0
 42
6.283185307179585
  0
LINE
  5
14330
330
DCF2
100
AcDbEntity
  8
Ancontension
100
AcDbLine
 10
2747.258254423501
 20
249.542438335989
 30
0.0
 11
2747.258254423501
 21
220.637602047232
 31
0.0
  0
ELLIPSE
  5
14331
330
DCF2
100
AcDbEntity
  8
Ancontension
100
AcDbEllipse
 10
2763.545326413352
 20
222.7156515208459
 30
0.0
 11
2.25
 21
0.0
 31
0.0
210
0.0
220
0.0
230
1.0
 40
0.7071067811865659
 41
0.0
 42
6.283185307179585
  0
LINE
  5
14332
330
DCF2
100
AcDbEntity
  8
Ancontension
  6
HIDDEN1_01
100
AcDbLine
 10
2766.258254423501
 20
246.0900201916106
 30
0.0
 11
2747.258254423501
 21
246.0900201916106
 31
0.0
  0
LINE
  5
14333
330
DCF2
100
AcDbEntity
  8
Ancontension
  6
HIDDEN1_01
100
AcDbLine
 10
2766.258254423501
 20
224.0900201916105
 30
0.0
 11
2747.258254423501
 21
224.0900201916105
 31
0.0
  0
ARC
  5
14334
330
DCF2
100
AcDbEntity
  8
Ancontension
100
AcDbCircle
 10
2748.008254423501
 20
220.637602047232
 30
0.0
 40
0.75
100
AcDbArc
 50
180.0
 51
261.6174404237763
  0
LINE
  5
14335
330
DCF2
100
AcDbEntity
  8
Ancontension
  6
HIDDEN1_01
100
AcDbLine
 10
2766.258254423501
 20
246.0900201916106
 30
0.0
 11
2766.258254423501
 21
224.0900201916105
 31
0.0
  0
LINE
  5
14336
330
DCF2
100
AcDbEntity
  8
Ancontension
  6
HIDDEN1_01
100
AcDbLine
 10
2785.258254423501
 20
225.0900201916106
 30
0.0
 11
2766.258254423501
 21
225.0900201916106
 31
0.0
  0
LINE
  5
14337
330
DCF2
100
AcDbEntity
  8
Ancontension
  6
HIDDEN1_01
100
AcDbLine
 10
2785.258254423499
 20
245.0900201916105
 30
0.0
 11
2766.258254423501
 21
245.0900201916105
 31
0.0
  0
LINE
  5
14338
330
DCF2
100
AcDbEntity
  8
Ancontension
100
AcDbLine
 10
2747.898918002696
 20
250.2844259013063
 30
0.0
 11
2784.398918002696
 21
255.6629248761123
 31
0.0
  0
ARC
  5
14339
330
DCF2
100
AcDbEntity
  8
Ancontension
100
AcDbCircle
 10
2748.008254423501
 20
249.542438335989
 30
0.0
 40
0.75
100
AcDbArc
 50
98.38255957622365
 51
180.0
  0
ARC
  5
1433A
330
DCF2
100
AcDbEntity
  8
Ancontension
100
AcDbCircle
 10
2784.508254423499
 20
254.9209373107951
 30
0.0
 40
0.75
100
AcDbArc
 50
0.0
 51
98.38255957622365
  0
LINE
  5
1433B
330
DCF2
100
AcDbEntity
  8
Ancontension
100
AcDbLine
 10
2867.258254423501
 20
254.9209373107948
 30
0.0
 11
2867.258254423501
 21
215.2591030724261
 31
0.0
  0
LINE
  5
1433C
330
DCF2
100
AcDbEntity
  8
Ancontension
100
AcDbLine
 10
2867.258254423502
 20
255.1419715152388
 30
0.0
 11
2867.258254423501
 21
215.038068867982
 31
0.0
  0
LINE
  5
1433D
330
DCF2
100
AcDbEntity
  8
Ancontension
100
AcDbLine
 10
2785.258254423501
 20
255.1419715152388
 30
0.0
 11
2785.258254423501
 21
215.0380688679824
 31
0.0
  0
LINE
  5
1433F
330
DCF2
100
AcDbEntity
  8
Ancontension
100
AcDbLine
 10
2793.841589344197
 20
213.5900201916116
 30
0.0
 11
2858.674919502798
 21
213.5900201916105
 31
0.0
  0
LINE
  5
14340
330
DCF2
100
AcDbEntity
  8
Ancontension
  6
HIDDEN1_01
100
AcDbLine
 10
2831.2582544235
 20
168.7586862485753
 30
0.0
 11
2867.258254423501
 21
168.7586862485753
 31
0.0
  0
LINE
  5
14341
330
DCF2
100
AcDbEntity
  8
Ancontension
100
AcDbLine
 10
2793.841589344213
 20
180.2586862485757
 30
0.0
 11
2858.674919502798
 21
180.2586862485744
 31
0.0
  0
LINE
  5
14343
330
DCF2
100
AcDbEntity
  8
Ancontension
  6
HIDDEN1_01
100
AcDbLine
 10
2785.258254423501
 20
168.7586862485753
 30
0.0
 11
2821.258254423501
 21
168.7586862485753
 31
0.0
  0
ARC
  5
14344
330
DCF2
100
AcDbEntity
  8
Ancontension
100
AcDbCircle
 10
2793.841589344213
 20
137.2586862485757
 30
0.0
 40
43.0
100
AcDbArc
 50
90.0
 51
98.38255957622365
  0
ARC
  5
14345
330
DCF2
100
AcDbEntity
  8
Ancontension
100
AcDbCircle
 10
2786.008254423501
 20
178.8106375722029
 30
0.0
 40
0.75
100
AcDbArc
 50
98.38255957622365
 51
180.0
  0
LINE
  5
14346
330
DCF2
100
AcDbEntity
  8
Ancontension
100
AcDbLine
 10
2785.898918002696
 20
179.5526251375204
 30
0.0
 11
2787.572967884733
 21
179.7993066601041
 31
0.0
  0
LINE
  5
14347
330
DCF2
100
AcDbEntity
  8
Ancontension
  6
HIDDEN1_01
100
AcDbLine
 10
2821.258254423501
 20
167.5086862485752
 30
0.0
 11
2831.2582544235
 21
167.5086862485749
 31
0.0
  0
LINE
  5
14348
330
DCF2
100
AcDbEntity
  8
Ancontension
  6
HIDDEN1_01
100
AcDbLine
 10
2821.258254423501
 20
168.7586862485753
 30
0.0
 11
2821.258254423501
 21
167.5086862485752
 31
0.0
  0
LINE
  5
14349
330
DCF2
100
AcDbEntity
  8
Ancontension
  6
HIDDEN1_01
100
AcDbLine
 10
2831.2582544235
 20
168.7586862485753
 30
0.0
 11
2831.2582544235
 21
167.508686248575
 31
0.0
  0
ARC
  5
1434B
330
DCF2
100
AcDbEntity
  8
Ancontension
100
AcDbCircle
 10
2793.841589344197
 20
256.5900201916117
 30
0.0
 40
43.0
100
AcDbArc
 50
261.6174404237763
 51
270.0
  0
LINE
  5
1434C
330
DCF2
100
AcDbEntity
  8
Ancontension
100
AcDbLine
 10
2785.898918002695
 20
214.2960813026649
 30
0.0
 11
2787.572967884717
 21
214.0493997800833
 31
0.0
  0
ARC
  5
1434D
330
DCF2
100
AcDbEntity
  8
Ancontension
100
AcDbCircle
 10
2786.008254423501
 20
215.0380688679824
 30
0.0
 40
0.75
100
AcDbArc
 50
180.0
 51
261.6174404237763
  0
ARC
  5
1434F
330
DCF2
100
AcDbEntity
  8
Ancontension
100
AcDbCircle
 10
2858.674919502797
 20
137.2586862485744
 30
0.0
 40
43.0
100
AcDbArc
 50
81.61744042377637
 51
90.0
  0
ARC
  5
14350
330
DCF2
100
AcDbEntity
  8
Ancontension
100
AcDbCircle
 10
2866.508254423502
 20
178.8106375722029
 30
0.0
 40
0.75
100
AcDbArc
 50
0.0
 51
81.61744042377637
  0
LINE
  5
14351
330
DCF2
100
AcDbEntity
  8
Ancontension
100
AcDbLine
 10
2866.617590844306
 20
179.5526251375204
 30
0.0
 11
2864.943540962277
 21
179.7993066601029
 31
0.0
  0
LINE
  5
14352
330
DCF2
100
AcDbEntity
  8
Ancontension
  6
HIDDEN1_01
100
AcDbLine
 10
2867.258254423501
 20
168.7586862485744
 30
0.0
 11
2886.258254423501
 21
168.7586862485744
 31
0.0
  0
ARC
  5
14353
330
DCF2
100
AcDbEntity
  8
Ancontension
100
AcDbCircle
 10
2868.008254423502
 20
178.5896033677588
 30
0.0
 40
0.75
100
AcDbArc
 50
81.61744042377637
 51
180.0
  0
ARC
  5
14354
330
DCF2
100
AcDbEntity
  8
Ancontension
100
AcDbCircle
 10
2858.674919502798
 20
256.5900201916106
 30
0.0
 40
43.0
100
AcDbArc
 50
270.0
 51
278.3825595762236
  0
LINE
  5
14355
330
DCF2
100
AcDbEntity
  8
Ancontension
100
AcDbLine
 10
2866.617590844304
 20
214.2960813026646
 30
0.0
 11
2864.943540962277
 21
214.0493997800821
 31
0.0
  0
ARC
  5
14356
330
DCF2
100
AcDbEntity
  8
Ancontension
100
AcDbCircle
 10
2866.508254423501
 20
215.038068867982
 30
0.0
 40
0.75
100
AcDbArc
 50
278.3825595762236
 51
0.0
  0
ARC
  5
14357
330
DCF2
100
AcDbEntity
  8
Ancontension
100
AcDbCircle
 10
2868.008254423502
 20
215.2591030724261
 30
0.0
 40
0.7500000000001137
100
AcDbArc
 50
180.0000000000064
 51
278.3825595762233
  0
LINE
  5
14358
330
DCF2
100
AcDbEntity
  8
Ancontension
100
AcDbLine
 10
2793.841589344213
 20
256.5900201916117
 30
0.0
 11
2858.674919502798
 21
256.5900201916106
 31
0.0
  0
LINE
  5
14359
330
DCF2
100
AcDbEntity
  8
Ancontension
  6
HIDDEN1_01
100
AcDbLine
 10
2831.2582544235
 20
225.0900201916115
 30
0.0
 11
2867.258254423501
 21
225.0900201916115
 31
0.0
  0
LINE
  5
1435A
330
DCF2
100
AcDbEntity
  8
Ancontension
  6
HIDDEN1_01
100
AcDbLine
 10
2831.2582544235
 20
245.0900201916115
 30
0.0
 11
2867.258254423501
 21
245.0900201916115
 31
0.0
  0
LINE
  5
1435B
330
DCF2
100
AcDbEntity
  8
Ancontension
  6
HIDDEN1_01
100
AcDbLine
 10
2785.258254423501
 20
245.0900201916115
 30
0.0
 11
2821.258254423501
 21
245.0900201916115
 31
0.0
  0
LINE
  5
1435C
330
DCF2
100
AcDbEntity
  8
Ancontension
  6
HIDDEN1_01
100
AcDbLine
 10
2785.258254423501
 20
225.0900201916115
 30
0.0
 11
2821.258254423501
 21
225.0900201916115
 31
0.0
  0
LINE
  5
1435E
330
DCF2
100
AcDbEntity
  8
Ancontension
  6
HIDDEN1_01
100
AcDbLine
 10
2821.258254423501
 20
226.3400201916113
 30
0.0
 11
2831.2582544235
 21
226.3400201916109
 31
0.0
  0
LINE
  5
1435F
330
DCF2
100
AcDbEntity
  8
Ancontension
  6
HIDDEN1_01
100
AcDbLine
 10
2821.258254423501
 20
226.3400201916113
 30
0.0
 11
2821.258254423501
 21
225.0900201916115
 31
0.0
  0
LINE
  5
14360
330
DCF2
100
AcDbEntity
  8
Ancontension
  6
HIDDEN1_01
100
AcDbLine
 10
2831.2582544235
 20
226.3400201916109
 30
0.0
 11
2831.2582544235
 21
225.0900201916115
 31
0.0
  0
LINE
  5
14361
330
DCF2
100
AcDbEntity
  8
Ancontension
  6
HIDDEN1_01
100
AcDbLine
 10
2821.258254423501
 20
243.8400201916113
 30
0.0
 11
2831.2582544235
 21
243.8400201916109
 31
0.0
  0
LINE
  5
14362
330
DCF2
100
AcDbEntity
  8
Ancontension
  6
HIDDEN1_01
100
AcDbLine
 10
2821.258254423501
 20
245.0900201916115
 30
0.0
 11
2821.258254423501
 21
243.8400201916113
 31
0.0
  0
LINE
  5
14363
330
DCF2
100
AcDbEntity
  8
Ancontension
  6
HIDDEN1_01
100
AcDbLine
 10
2831.2582544235
 20
245.0900201916115
 30
0.0
 11
2831.2582544235
 21
243.8400201916109
 31
0.0
  0
ARC
  5
14364
330
DCF2
100
AcDbEntity
  8
Ancontension
100
AcDbCircle
 10
2793.841589344213
 20
213.5900201916116
 30
0.0
 40
43.0
100
AcDbArc
 50
90.0
 51
98.38255957622365
  0
LINE
  5
14365
330
DCF2
100
AcDbEntity
  8
Ancontension
100
AcDbLine
 10
2785.898918002696
 20
255.8839590805564
 30
0.0
 11
2787.572967884733
 21
256.1306406031401
 31
0.0
  0
ARC
  5
14366
330
DCF2
100
AcDbEntity
  8
Ancontension
100
AcDbCircle
 10
2786.008254423501
 20
255.1419715152388
 30
0.0
 40
0.75
100
AcDbArc
 50
98.38255957622365
 51
180.0
  0
LINE
  5
1436A
330
DCF2
100
AcDbEntity
  8
Ancontension
  6
HIDDEN1_01
100
AcDbLine
 10
2886.258254423501
 20
246.0900201916103
 30
0.0
 11
2886.258254423501
 21
224.0900201916104
 31
0.0
  0
LINE
  5
1436B
330
DCF2
100
AcDbEntity
  8
Ancontension
  6
HIDDEN1_01
100
AcDbLine
 10
2867.258254423501
 20
225.0900201916103
 30
0.0
 11
2886.258254423499
 21
225.0900201916103
 31
0.0
  0
LINE
  5
1436C
330
DCF2
100
AcDbEntity
  8
Ancontension
  6
HIDDEN1_01
100
AcDbLine
 10
2867.258254423501
 20
245.0900201916104
 30
0.0
 11
2886.258254423501
 21
245.0900201916104
 31
0.0
  0
ARC
  5
1436E
330
DCF2
100
AcDbEntity
  8
Ancontension
100
AcDbCircle
 10
2858.674919502797
 20
213.5900201916105
 30
0.0
 40
43.0
100
AcDbArc
 50
81.61744042377637
 51
90.0
  0
LINE
  5
1436F
330
DCF2
100
AcDbEntity
  8
Ancontension
100
AcDbLine
 10
2866.617590844306
 20
255.8839590805564
 30
0.0
 11
2864.943540962277
 21
256.1306406031389
 31
0.0
  0
ARC
  5
14370
330
DCF2
100
AcDbEntity
  8
Ancontension
100
AcDbCircle
 10
2866.508254423502
 20
255.1419715152388
 30
0.0
 40
0.75
100
AcDbArc
 50
0.0
 51
81.61744042377637
  0
ARC
  5
14373
330
DCF2
100
AcDbEntity
  8
Ancontension
100
AcDbCircle
 10
2868.008254423502
 20
254.9209373107948
 30
0.0
 40
0.75
100
AcDbArc
 50
81.61744042377637
 51
180.0
  0
ARC
  5
14374
330
DCF2
100
AcDbEntity
  8
Ancontension
100
AcDbCircle
 10
2826.258254423505
 20
272.0361225224265
 30
0.0
 40
12.0
100
AcDbArc
 50
44.99999999999769
 51
135.0000000000022
  0
ARC
  5
14375
330
DCF2
100
AcDbEntity
  8
Ancontension
100
AcDbCircle
 10
2904.508254423501
 20
173.2111043929528
 30
0.0
 40
0.75
100
AcDbArc
 50
0.0
 51
81.61744042377637
  0
LINE
  5
14376
330
DCF2
100
AcDbEntity
  8
Ancontension
100
AcDbLine
 10
2905.258254423501
 20
249.5424383359889
 30
0.0
 11
2905.258254423501
 21
220.637602047232
 31
0.0
  0
ARC
  5
14377
330
DCF2
100
AcDbEntity
  8
Ancontension
100
AcDbCircle
 10
2904.508254423501
 20
220.637602047232
 30
0.0
 40
0.75
100
AcDbArc
 50
278.3825595762236
 51
0.0
  0
ARC
  5
14378
330
DCF2
100
AcDbEntity
  8
Ancontension
100
AcDbCircle
 10
2904.508254423501
 20
249.5424383359889
 30
0.0
 40
0.75
100
AcDbArc
 50
0.0
 51
81.61744042377637
  0
TEXT
  5
1448C
330
DCF2
100
AcDbEntity
  8
Ancontension
100
AcDbText
 10
2814.172441783447
 20
193.4932528556779
 30
0.0
 40
10.0
  1
20
  7
ROMANS
100
AcDbText
  0
VIEWPORT
  5
1077E
330
10777
100
AcDbEntity
 67
     1
  8
0
100
AcDbViewport
 10
5.649584071842704
 20
3.9337497996533
 30
0.0
 40
13.59960971915711
 41
8.742606248029574
 68
     1
 69
     1
 12
5.649584071842704
 22
3.9337497996533
 13
0.0
 23
0.0
 14
10.0
 24
10.0
 15
10.0
 25
10.0
 16
0.0
 26
0.0
 36
1.0
 17
0.0
 27
0.0
 37
0.0
 42
50.0
 43
0.0
 44
0.0
 45
8.742606248029574
 50
0.0
 51
0.0
 72
   100
 90
    32800
  1

281
     0
 71
     1
 74
     0
110
0.0
120
0.0
130
0.0
111
1.0
121
0.0
131
0.0
112
0.0
122
1.0
132
0.0
 79
     0
146
0.0
  0
VIEWPORT
  5
10780
330
10777
100
AcDbEntity
 67
     1
  8
DEFPOINTS
100
AcDbViewport
 10
5.649583752699723
 20
3.933750081250048
 30
0.0
 40
9.03933400431956
 41
6.294000130000076
 68
     2
 69
     2
 12
387.5355434982203
 22
270.7623806840798
 13
0.0
 23
0.0
 14
0.5
 24
0.5
 15
0.0
 25
0.0
 16
0.0
 26
0.0
 36
1.0
 17
0.0
 27
0.0
 37
0.0
 42
50.0
 43
0.0
 44
0.0
 45
90.26230401032616
 50
0.0
 51
0.0
 72
   100
 90
    32808
  1

281
     0
 71
     1
 74
     0
110
0.0
120
0.0
130
0.0
111
1.0
121
0.0
131
0.0
112
0.0
122
1.0
132
0.0
 79
     0
146
0.0
  0
ENDSEC
  0
SECTION
  2
OBJECTS
  0
DICTIONARY
  5
DCE7
330
0
100
AcDbDictionary
281
     1
  3
ACAD_GROUP
350
DCE8
  3
ACAD_LAYOUT
350
EBBD
  3
ACAD_MLINESTYLE
350
DCF5
  3
ACAD_PLOTSETTINGS
350
EBBE
  3
ACAD_PLOTSTYLENAME
350
EBBB
  3
AcadDim
350
EC1C
  3
ACDBHEADERROUNDTRIPXREC
350
15965
  3
ACDBVARIABLEDICTIONARY
350
DD3A
  3
AVE_ACITABLE
350
EA5F
  0
DICTIONARY
  5
1586E
330
DCF2
100
AcDbDictionary
280
     1
281
     1
  3
ACAD_LAYOUTSELFREF
360
1586F
  0
DICTIONARY
  5
15847
330
10777
100
AcDbDictionary
280
     1
281
     1
  3
ACAD_LAYOUTSELFREF
360
1587C
  0
DICTIONARY
  5
DCE8
102
{ACAD_REACTORS
330
DCE7
102
}
330
DCE7
100
AcDbDictionary
281
     1
  0
DICTIONARY
  5
EBBD
102
{ACAD_REACTORS
330
DCE7
102
}
330
DCE7
100
AcDbDictionary
281
     1
  3
Layout1
350
10778
  3
Model
350
EBBF
  0
DICTIONARY
  5
DCF5
102
{ACAD_REACTORS
330
DCE7
102
}
330
DCE7
100
AcDbDictionary
281
     1
  3
STANDARD
350
DCF6
  0
DICTIONARY
  5
EBBE
102
{ACAD_REACTORS
330
DCE7
102
}
330
DCE7
100
AcDbDictionary
281
     1
  0
ACDBDICTIONARYWDFLT
  5
EBBB
102
{ACAD_REACTORS
330
DCE7
102
}
330
DCE7
100
AcDbDictionary
281
     1
  3
Normal
350
EBBC
100
AcDbDictionaryWithDefault
340
EBBC
  0
XRECORD
  5
EC1C
102
{ACAD_REACTORS
330
DCE7
102
}
330
DCE7
100
AcDbXrecord
280
     1
 90
   990106
  3

 60
     0
 61
     0
 62
     1
 63
     3
 64
     0
 65
     0
 66
     0
 67
     3
 68
     1
 69
     0
 70
     0
 71
     0
 72
     0
 40
0.0
170
     0
340
0
  0
DICTIONARY
  5
15965
102
{ACAD_REACTORS
330
DCE7
102
}
330
DCE7
100
AcDbDictionary
281
     1
  3
CEPSNTYPE
350
1596F
  3
DIMSTYLEDATA
350
15973
  3
FINGERPRINTGUID
350
15970
  3
HYPERLINKBASE
350
15968
  3
INSUNITS
350
1596E
  3
LAYOUTDICT
350
1596A
  3
LWETCUNION
350
1596D
  3
PLOTSETDICT
350
1596B
  3
PLOTSTYLNAMDICT
350
1596C
  3
PSVPSCALE
350
15972
  3
PUCSBASE
350
15976
  3
PUCSORGBACK
350
1597C
  3
PUCSORGBOTTOM
350
15978
  3
PUCSORGFRONT
350
1597B
  3
PUCSORGLEFT
350
15979
  3
PUCSORGRIGHT
350
1597A
  3
PUCSORGTOP
350
15977
  3
PUCSORTHOREF
350
15974
  3
PUCSORTHOVIEW
350
15975
  3
STYLESHEET
350
15969
  3
TSTACKALIGN
350
15966
  3
TSTACKSIZE
350
15967
  3
UCSBASE
350
1597F
  3
UCSORGBACK
350
15985
  3
UCSORGBOTTOM
350
15981
  3
UCSORGFRONT
350
15984
  3
UCSORGLEFT
350
15982
  3
UCSORGRIGHT
350
15983
  3
UCSORGTOP
350
15980
  3
UCSORTHOREF
350
1597D
  3
UCSORTHOVIEW
350
1597E
  3
VERSIONGUID
350
15971
  0
DICTIONARY
  5
DD3A
102
{ACAD_REACTORS
330
DCE7
102
}
330
DCE7
100
AcDbDictionary
281
     1
  3
DIMADEC
350
DD3B
  3
DIMASSOC
350
EC17
  3
SORTENTS
350
E79F
  0
DICTIONARY
  5
EA5F
102
{ACAD_REACTORS
330
DCE7
102
}
330
DCE7
100
AcDbDictionary
281
     1
  0
XRECORD
  5
1586F
102
{ACAD_REACTORS
330
1586E
102
}
330
1586E
100
AcDbXrecord
280
     1
340
DCF2
  0
XRECORD
  5
1587C
102
{ACAD_REACTORS
330
15847
102
}
330
15847
100
AcDbXrecord
280
     1
340
10777
  0
LAYOUT
  5
10778
102
{ACAD_REACTORS
330
EBBD
102
}
330
EBBD
100
AcDbPlotSettings
  1

  2
\\Zeus\Xerox-Export
  4
A4
  6

 40
5.027083396911621
 41
5.027085304260253
 42
5.027069091796875
 43
5.027069091796875
 44
209.8886566162109
 45
297.0530090332031
 46
0.0
 47
0.0
 48
0.0
 49
0.0
140
0.0
141
0.0
142
1.0
143
1.0
 70
   688
 72
     0
 73
     1
 74
     5
  7

 75
    16
147
1.0
148
0.0
149
0.0
100
AcDbLayout
  1
Layout1
 70
     1
 71
     1
 10
-0.1979161059762549
 20
-0.1979166691697489
 11
11.49708424966165
 21
8.065416268476351
 12
0.0
 22
0.0
 32
0.0
 14
1.129916750539944
 24
0.78675001625001
 34
0.0
 15
10.1692507548595
 25
7.080750146250085
 35
0.0
146
0.0
 13
0.0
 23
0.0
 33
0.0
 16
1.0
 26
0.0
 36
0.0
 17
0.0
 27
1.0
 37
0.0
 76
     0
330
10777
331
1077E
  0
LAYOUT
  5
EBBF
102
{ACAD_REACTORS
330
EBBD
102
}
330
EBBD
100
AcDbPlotSettings
  1

  2
Ancon 1 A4
  4

  6

 40
0.0
 41
0.0
 42
0.0
 43
0.0
 44
0.0
 45
0.0
 46
0.0
 47
0.0
 48
0.0
 49
0.0
140
0.0
141
0.0
142
1.0
143
1.0
 70
  1712
 72
     0
 73
     0
 74
     0
  7

 75
     0
147
1.0
148
0.0
149
0.0
100
AcDbLayout
  1
Model
 70
     1
 71
     0
 10
0.0
 20
0.0
 11
12.0
 21
9.0
 12
0.0
 22
0.0
 32
0.0
 14
0.0
 24
0.0
 34
0.0
 15
0.0
 25
0.0
 35
0.0
146
0.0
 13
0.0
 23
0.0
 33
0.0
 16
1.0
 26
0.0
 36
0.0
 17
0.0
 27
1.0
 37
0.0
 76
     0
330
DCF2
  0
MLINESTYLE
  5
DCF6
102
{ACAD_REACTORS
330
DCF5
102
}
330
DCF5
100
AcDbMlineStyle
  2
STANDARD
 70
     0
  3

 62
   256
 51
90.0
 52
90.0
 71
     2
 49
0.5
 62
   256
  6
BYLAYER
 49
-0.5
 62
   256
  6
BYLAYER
  0
ACDBPLACEHOLDER
  5
EBBC
102
{ACAD_REACTORS
330
EBBB
102
}
330
EBBB
  0
XRECORD
  5
1596F
102
{ACAD_REACTORS
330
15965
102
}
330
15965
100
AcDbXrecord
280
     1
 90
        0
  0
XRECORD
  5
15973
102
{ACAD_REACTORS
330
15965
102
}
330
15965
100
AcDbXrecord
280
     1
1000
DSTYLE
1002
{
1070
   179
 70
     2
1070
   279
 70
     2
1002
}
  0
XRECORD
  5
15970
102
{ACAD_REACTORS
330
15965
102
}
330
15965
100
AcDbXrecord
280
     1
  1
{B88EE4EA-09A3-11D6-AAD2-00C04F189418}
  0
XRECORD
  5
15968
102
{ACAD_REACTORS
330
15965
102
}
330
15965
100
AcDbXrecord
280
     1
  1

  0
XRECORD
  5
1596E
102
{ACAD_REACTORS
330
15965
102
}
330
15965
100
AcDbXrecord
280
     1
 90
        0
  0
XRECORD
  5
1596A
102
{ACAD_REACTORS
330
15965
102
}
330
15965
100
AcDbXrecord
280
     1
340
EBBD
  0
XRECORD
  5
1596D
102
{ACAD_REACTORS
330
15965
102
}
330
15965
100
AcDbXrecord
280
     1
 90
    10781
  0
XRECORD
  5
1596B
102
{ACAD_REACTORS
330
15965
102
}
330
15965
100
AcDbXrecord
280
     1
340
EBBE
  0
XRECORD
  5
1596C
102
{ACAD_REACTORS
330
15965
102
}
330
15965
100
AcDbXrecord
280
     1
340
EBBB
  0
XRECORD
  5
15972
102
{ACAD_REACTORS
330
15965
102
}
330
15965
100
AcDbXrecord
280
     1
 40
0.0
  0
XRECORD
  5
15976
102
{ACAD_REACTORS
330
15965
102
}
330
15965
100
AcDbXrecord
280
     1
340
0
  0
XRECORD
  5
1597C
102
{ACAD_REACTORS
330
15965
102
}
330
15965
100
AcDbXrecord
280
     1
 10
0.0
 20
0.0
 30
0.0
  0
XRECORD
  5
15978
102
{ACAD_REACTORS
330
15965
102
}
330
15965
100
AcDbXrecord
280
     1
 10
0.0
 20
0.0
 30
0.0
  0
XRECORD
  5
1597B
102
{ACAD_REACTORS
330
15965
102
}
330
15965
100
AcDbXrecord
280
     1
 10
0.0
 20
0.0
 30
0.0
  0
XRECORD
  5
15979
102
{ACAD_REACTORS
330
15965
102
}
330
15965
100
AcDbXrecord
280
     1
 10
0.0
 20
0.0
 30
0.0
  0
XRECORD
  5
1597A
102
{ACAD_REACTORS
330
15965
102
}
330
15965
100
AcDbXrecord
280
     1
 10
0.0
 20
0.0
 30
0.0
  0
XRECORD
  5
15977
102
{ACAD_REACTORS
330
15965
102
}
330
15965
100
AcDbXrecord
280
     1
 10
0.0
 20
0.0
 30
0.0
  0
XRECORD
  5
15974
102
{ACAD_REACTORS
330
15965
102
}
330
15965
100
AcDbXrecord
280
     1
340
0
  0
XRECORD
  5
15975
102
{ACAD_REACTORS
330
15965
102
}
330
15965
100
AcDbXrecord
280
     1
 70
     0
  0
XRECORD
  5
15969
102
{ACAD_REACTORS
330
15965
102
}
330
15965
100
AcDbXrecord
280
     1
  1

  0
XRECORD
  5
15966
102
{ACAD_REACTORS
330
15965
102
}
330
15965
100
AcDbXrecord
280
     1
 90
        1
  0
XRECORD
  5
15967
102
{ACAD_REACTORS
330
15965
102
}
330
15965
100
AcDbXrecord
280
     1
 90
       70
  0
XRECORD
  5
1597F
102
{ACAD_REACTORS
330
15965
102
}
330
15965
100
AcDbXrecord
280
     1
340
0
  0
XRECORD
  5
15985
102
{ACAD_REACTORS
330
15965
102
}
330
15965
100
AcDbXrecord
280
     1
 10
0.0
 20
0.0
 30
0.0
  0
XRECORD
  5
15981
102
{ACAD_REACTORS
330
15965
102
}
330
15965
100
AcDbXrecord
280
     1
 10
0.0
 20
0.0
 30
0.0
  0
XRECORD
  5
15984
102
{ACAD_REACTORS
330
15965
102
}
330
15965
100
AcDbXrecord
280
     1
 10
0.0
 20
0.0
 30
0.0
  0
XRECORD
  5
15982
102
{ACAD_REACTORS
330
15965
102
}
330
15965
100
AcDbXrecord
280
     1
 10
0.0
 20
0.0
 30
0.0
  0
XRECORD
  5
15983
102
{ACAD_REACTORS
330
15965
102
}
330
15965
100
AcDbXrecord
280
     1
 10
0.0
 20
0.0
 30
0.0
  0
XRECORD
  5
15980
102
{ACAD_REACTORS
330
15965
102
}
330
15965
100
AcDbXrecord
280
     1
 10
0.0
 20
0.0
 30
0.0
  0
XRECORD
  5
1597D
102
{ACAD_REACTORS
330
15965
102
}
330
15965
100
AcDbXrecord
280
     1
340
0
  0
XRECORD
  5
1597E
102
{ACAD_REACTORS
330
15965
102
}
330
15965
100
AcDbXrecord
280
     1
 70
     0
  0
XRECORD
  5
15971
102
{ACAD_REACTORS
330
15965
102
}
330
15965
100
AcDbXrecord
280
     1
  1
{FBA71322-3F7F-415C-9C53-8B3AE6118C0E}
  0
DICTIONARYVAR
  5
DD3B
102
{ACAD_REACTORS
330
DD3A
102
}
330
DD3A
100
DictionaryVariables
280
     0
  1
0
  0
DICTIONARYVAR
  5
EC17
102
{ACAD_REACTORS
330
DD3A
102
}
330
DD3A
100
DictionaryVariables
280
     0
  1
1
  0
DICTIONARYVAR
  5
E79F
102
{ACAD_REACTORS
330
DD3A
102
}
330
DD3A
100
DictionaryVariables
280
     0
  1
96
  0
ENDSEC
  0
EOF
