  0
SECTION
  2
HEADER
  9
$ACADVER
  1
AC1015
  9
$ACADMAINTVER
 70
    10
  9
$DWGCODEPAGE
  3
ANSI_1252
  9
$INSBASE
 10
0.0
 20
0.0
 30
0.0
  9
$EXTMIN
 10
3031.773149634146
 20
-556.7044801350817
 30
0.0
  9
$EXTMAX
 10
3478.703753245732
 20
-186.080246826538
 30
0.0
  9
$LIMMIN
 10
0.0
 20
0.0
  9
$LIMMAX
 10
12.0
 20
9.0
  9
$ORTHOMODE
 70
     0
  9
$REGENMODE
 70
     1
  9
$FILLMODE
 70
     1
  9
$QTEXTMODE
 70
     0
  9
$MIRRTEXT
 70
     0
  9
$LTSCALE
 40
1.0
  9
$ATTMODE
 70
     1
  9
$TEXTSIZE
 40
40.0
  9
$TRACEWID
 40
0.05
  9
$TEXTSTYLE
  7
ROMANS
  9
$CLAYER
  8
DIMS
  9
$CELTYPE
  6
BYLAYER
  9
$CECOLOR
 62
   256
  9
$CELTSCALE
 40
1.0
  9
$DISPSILH
 70
     0
  9
$DIMSCALE
 40
1.0
  9
$DIMASZ
 40
2.0
  9
$DIMEXO
 40
4.5
  9
$DIMDLI
 40
0.0
  9
$DIMRND
 40
0.01
  9
$DIMDLE
 40
0.0
  9
$DIMEXE
 40
1.5
  9
$DIMTP
 40
0.0
  9
$DIMTM
 40
0.0
  9
$DIMTXT
 40
1.8
  9
$DIMCEN
 40
0.0
  9
$DIMTSZ
 40
0.0
  9
$DIMTOL
 70
     0
  9
$DIMLIM
 70
     0
  9
$DIMTIH
 70
     0
  9
$DIMTOH
 70
     0
  9
$DIMSE1
 70
     0
  9
$DIMSE2
 70
     0
  9
$DIMTAD
 70
     1
  9
$DIMZIN
 70
    12
  9
$DIMBLK
  1

  9
$DIMASO
 70
     1
  9
$DIMSHO
 70
     1
  9
$DIMPOST
  1

  9
$DIMAPOST
  1

  9
$DIMALT
 70
     0
  9
$DIMALTD
 70
     2
  9
$DIMALTF
 40
25.4
  9
$DIMLFAC
 40
1.0
  9
$DIMTOFL
 70
     0
  9
$DIMTVP
 40
0.0
  9
$DIMTIX
 70
     0
  9
$DIMSOXD
 70
     0
  9
$DIMSAH
 70
     0
  9
$DIMBLK1
  1

  9
$DIMBLK2
  1

  9
$DIMSTYLE
  2
1-1
  9
$DIMCLRD
 70
     0
  9
$DIMCLRE
 70
     0
  9
$DIMCLRT
 70
     0
  9
$DIMTFAC
 40
1.25
  9
$DIMGAP
 40
1.0
  9
$DIMJUST
 70
     0
  9
$DIMSD1
 70
     0
  9
$DIMSD2
 70
     0
  9
$DIMTOLJ
 70
     1
  9
$DIMTZIN
 70
    12
  9
$DIMALTZ
 70
    12
  9
$DIMALTTZ
 70
    12
  9
$DIMUPT
 70
     0
  9
$DIMDEC
 70
     4
  9
$DIMTDEC
 70
     4
  9
$DIMALTU
 70
     2
  9
$DIMALTTD
 70
     2
  9
$DIMTXSTY
  7
ROMANS
  9
$DIMAUNIT
 70
     0
  9
$DIMADEC
 70
     2
  9
$DIMALTRND
 40
0.0
  9
$DIMAZIN
 70
     0
  9
$DIMDSEP
 70
    46
  9
$DIMATFIT
 70
     3
  9
$DIMFRAC
 70
     0
  9
$DIMLDRBLK
  1

  9
$DIMLUNIT
 70
     2
  9
$DIMLWD
 70
    -2
  9
$DIMLWE
 70
    -2
  9
$DIMTMOVE
 70
     2
  9
$LUNITS
 70
     2
  9
$LUPREC
 70
     4
  9
$SKETCHINC
 40
0.1
  9
$FILLETRAD
 40
0.5
  9
$AUNITS
 70
     0
  9
$AUPREC
 70
     0
  9
$MENU
  1
acad
  9
$ELEVATION
 40
0.0
  9
$PELEVATION
 40
0.0
  9
$THICKNESS
 40
0.0
  9
$LIMCHECK
 70
     0
  9
$CHAMFERA
 40
0.5
  9
$CHAMFERB
 40
0.5
  9
$CHAMFERC
 40
0.0
  9
$CHAMFERD
 40
0.0
  9
$SKPOLY
 70
     0
  9
$TDCREATE
 40
2452202.646556944
  9
$TDUCREATE
 40
2452202.646556944
  9
$TDUPDATE
 40
2453060.717641887
  9
$TDUUPDATE
 40
2453060.717641887
  9
$TDINDWG
 40
1.4362267940
  9
$TDUSRTIMER
 40
1.4362267940
  9
$USRTIMER
 70
     1
  9
$ANGBASE
 50
0.0
  9
$ANGDIR
 70
     0
  9
$PDMODE
 70
     3
  9
$PDSIZE
 40
0.0
  9
$PLINEWID
 40
0.0
  9
$SPLFRAME
 70
     0
  9
$SPLINETYPE
 70
     6
  9
$SPLINESEGS
 70
     8
  9
$HANDSEED
  5
15A12
  9
$SURFTAB1
 70
     6
  9
$SURFTAB2
 70
     6
  9
$SURFTYPE
 70
     6
  9
$SURFU
 70
     6
  9
$SURFV
 70
     6
  9
$UCSBASE
  2

  9
$UCSNAME
  2

  9
$UCSORG
 10
0.0
 20
0.0
 30
0.0
  9
$UCSXDIR
 10
1.0
 20
0.0
 30
0.0
  9
$UCSYDIR
 10
0.0
 20
1.0
 30
0.0
  9
$UCSORTHOREF
  2

  9
$UCSORTHOVIEW
 70
     0
  9
$UCSORGTOP
 10
0.0
 20
0.0
 30
0.0
  9
$UCSORGBOTTOM
 10
0.0
 20
0.0
 30
0.0
  9
$UCSORGLEFT
 10
0.0
 20
0.0
 30
0.0
  9
$UCSORGRIGHT
 10
0.0
 20
0.0
 30
0.0
  9
$UCSORGFRONT
 10
0.0
 20
0.0
 30
0.0
  9
$UCSORGBACK
 10
0.0
 20
0.0
 30
0.0
  9
$PUCSBASE
  2

  9
$PUCSNAME
  2

  9
$PUCSORG
 10
0.0
 20
0.0
 30
0.0
  9
$PUCSXDIR
 10
1.0
 20
0.0
 30
0.0
  9
$PUCSYDIR
 10
0.0
 20
1.0
 30
0.0
  9
$PUCSORTHOREF
  2

  9
$PUCSORTHOVIEW
 70
     0
  9
$PUCSORGTOP
 10
0.0
 20
0.0
 30
0.0
  9
$PUCSORGBOTTOM
 10
0.0
 20
0.0
 30
0.0
  9
$PUCSORGLEFT
 10
0.0
 20
0.0
 30
0.0
  9
$PUCSORGRIGHT
 10
0.0
 20
0.0
 30
0.0
  9
$PUCSORGFRONT
 10
0.0
 20
0.0
 30
0.0
  9
$PUCSORGBACK
 10
0.0
 20
0.0
 30
0.0
  9
$USERI1
 70
     0
  9
$USERI2
 70
     0
  9
$USERI3
 70
     0
  9
$USERI4
 70
     0
  9
$USERI5
 70
     0
  9
$USERR1
 40
0.0
  9
$USERR2
 40
0.0
  9
$USERR3
 40
0.0
  9
$USERR4
 40
0.0
  9
$USERR5
 40
0.0
  9
$WORLDVIEW
 70
     1
  9
$SHADEDGE
 70
     3
  9
$SHADEDIF
 70
    70
  9
$TILEMODE
 70
     1
  9
$MAXACTVP
 70
    16
  9
$PINSBASE
 10
0.0
 20
0.0
 30
0.0
  9
$PLIMCHECK
 70
     0
  9
$PEXTMIN
 10
1.129916750539944
 20
0.78675001625001
 30
0.0
  9
$PEXTMAX
 10
10.1692507548595
 20
7.080750146250085
 30
0.0
  9
$PLIMMIN
 10
-0.1979161059762549
 20
-0.1979166691697489
  9
$PLIMMAX
 10
11.49708424966165
 20
8.065416268476351
  9
$UNITMODE
 70
     0
  9
$VISRETAIN
 70
     0
  9
$PLINEGEN
 70
     0
  9
$PSLTSCALE
 70
     1
  9
$TREEDEPTH
 70
  3020
  9
$CMLSTYLE
  2
STANDARD
  9
$CMLJUST
 70
     0
  9
$CMLSCALE
 40
1.0
  9
$PROXYGRAPHICS
 70
     1
  9
$MEASUREMENT
 70
     0
  9
$CELWEIGHT
370
    -1
  9
$ENDCAPS
280
     0
  9
$JOINSTYLE
280
     0
  9
$LWDISPLAY
290
     0
  9
$INSUNITS
 70
     0
  9
$HYPERLINKBASE
  1

  9
$STYLESHEET
  1

  9
$XEDIT
290
     1
  9
$CEPSNTYPE
380
     0
  9
$PSTYLEMODE
290
     1
  9
$FINGERPRINTGUID
  2
{B88EE4EA-09A3-11D6-AAD2-00C04F189418}
  9
$VERSIONGUID
  2
{65265883-D4C0-4C7F-8193-FDC1C5F403A9}
  9
$EXTNAMES
290
     1
  9
$PSVPSCALE
 40
0.0
  9
$OLESTARTUP
290
     0
  0
ENDSEC
  0
SECTION
  2
CLASSES
  0
CLASS
  1
DICTIONARYVAR
  2
AcDbDictionaryVar
  3
AutoCAD 2000
 90
        0
280
     0
281
     0
  0
CLASS
  1
LWPOLYLINE
  2
AcDbPolyline
  3
AutoCAD 2000
 90
    32768
280
     0
281
     1
  0
CLASS
  1
IDBUFFER
  2
AcDbIdBuffer
  3
AutoCAD 2000
 90
    32768
280
     0
281
     0
  0
CLASS
  1
ACDBDICTIONARYWDFLT
  2
AcDbDictionaryWithDefault
  3
AutoCAD 2000
 90
        0
280
     0
281
     0
  0
CLASS
  1
ACDBPLACEHOLDER
  2
AcDbPlaceHolder
  3
AutoCAD 2000
 90
        0
280
     0
281
     0
  0
CLASS
  1
LAYOUT
  2
AcDbLayout
  3
AutoCAD 2000
 90
        0
280
     0
281
     0
  0
CLASS
  1
LONG_TRANSACTION
  2
AcDbLongTransaction
  3
AutoCAD 2000
 90
    32768
280
     0
281
     0
  0
CLASS
  1
LWPOLYLINE
  2
AcDbPolyline
  3
AutoCAD 2000
 90
    32768
280
     0
281
     1
  0
CLASS
  1
HATCH
  2
AcDbHatch
  3
AutoCAD 2000
 90
    32768
280
     0
281
     1
  0
CLASS
  1
XRECORD
  2
AcDbXrecord
  3
AutoCAD 2000
 90
    32768
280
     0
281
     0
  0
ENDSEC
  0
SECTION
  2
TABLES
  0
TABLE
  2
VPORT
  5
DCE3
330
0
100
AcDbSymbolTable
 70
     2
  0
VPORT
  5
159F0
330
DCE3
100
AcDbSymbolTableRecord
100
AcDbViewportTableRecord
  2
*Active
 70
     0
 10
0.0
 20
0.0
 11
1.0
 21
1.0
 12
3315.077617663376
 22
-317.4616670765832
 13
0.0
 23
0.0
 14
0.5
 24
0.5
 15
0.0
 25
0.0
 16
0.0
 26
0.0
 36
1.0
 17
0.0
 27
0.0
 37
0.0
 40
846.9606391303393
 41
1.52338811630847
 42
50.0
 43
0.0
 44
0.0
 50
0.0
 51
0.0
 71
     8
 72
   100
 73
     1
 74
     1
 75
     0
 76
     0
 77
     0
 78
     0
281
     0
 65
     1
110
0.0
120
0.0
130
0.0
111
1.0
121
0.0
131
0.0
112
0.0
122
1.0
132
0.0
 79
     0
146
0.0
  0
ENDTAB
  0
TABLE
  2
LTYPE
  5
DCE0
330
0
100
AcDbSymbolTable
 70
    26
  0
LTYPE
  5
DCEC
330
DCE0
100
AcDbSymbolTableRecord
100
AcDbLinetypeTableRecord
  2
BYBLOCK
 70
     0
  3

 72
    65
 73
     0
 40
0.0
  0
LTYPE
  5
DCED
330
DCE0
100
AcDbSymbolTableRecord
100
AcDbLinetypeTableRecord
  2
BYLAYER
 70
     0
  3

 72
    65
 73
     0
 40
0.0
  0
LTYPE
  5
DCEE
330
DCE0
100
AcDbSymbolTableRecord
100
AcDbLinetypeTableRecord
  2
CONTINUOUS
 70
     0
  3
Solid line
 72
    65
 73
     0
 40
0.0
  0
LTYPE
  5
DD10
330
DCE0
100
AcDbSymbolTableRecord
100
AcDbLinetypeTableRecord
  2
HIDDEN1_02
 70
     0
  3
__ __ __ __ __ __ __ __ __ __ __ __ __ __ __ __
 72
    65
 73
     2
 40
10.0
 49
6.0
 74
     0
 49
-4.0
 74
     0
  0
ENDTAB
  0
TABLE
  2
LAYER
  5
DCDD
330
0
100
AcDbSymbolTable
 70
    20
  0
LAYER
  5
DCE9
330
DCDD
100
AcDbSymbolTableRecord
100
AcDbLayerTableRecord
  2
0
 70
     0
 62
     7
  6
CONTINUOUS
370
    -3
390
EBBC
  0
LAYER
  5
DD28
330
DCDD
100
AcDbSymbolTableRecord
100
AcDbLayerTableRecord
  2
ANCON
 70
     0
 62
     4
  6
CONTINUOUS
370
    -3
390
EBBC
  0
LAYER
  5
DD29
330
DCDD
100
AcDbSymbolTableRecord
100
AcDbLayerTableRecord
  2
DIMS
 70
     0
 62
     2
  6
CONTINUOUS
370
    -3
390
EBBC
  0
LAYER
  5
DD33
330
DCDD
100
AcDbSymbolTableRecord
100
AcDbLayerTableRecord
  2
DEFPOINTS
 70
     0
 62
     7
  6
CONTINUOUS
290
     0
370
    -3
390
EBBC
  0
LAYER
  5
EA1A
330
DCDD
100
AcDbSymbolTableRecord
100
AcDbLayerTableRecord
  2
ASHADE
 70
     4
 62
     7
  6
CONTINUOUS
370
    -3
390
EBBC
  0
LAYER
  5
15885
330
DCDD
100
AcDbSymbolTableRecord
100
AcDbLayerTableRecord
  2
Ancontension
 70
     0
 62
     1
  6
CONTINUOUS
370
    -3
390
EBBC
  0
ENDTAB
  0
TABLE
  2
STYLE
  5
DCDE
330
0
100
AcDbSymbolTable
 70
     3
  0
STYLE
  5
DCEA
330
DCDE
100
AcDbSymbolTableRecord
100
AcDbTextStyleTableRecord
  2
STANDARD
 70
     0
 40
0.0
 41
1.0
 50
0.0
 71
     0
 42
0.2
  3
txt
  4

  0
STYLE
  5
DD02
330
DCDE
100
AcDbSymbolTableRecord
100
AcDbTextStyleTableRecord
  2
ROMANS
 70
     0
 40
0.0
 41
1.0
 50
0.0
 71
     0
 42
40.0
  3
romans
  4

  0
ENDTAB
  0
TABLE
  2
VIEW
  5
DCE1
330
0
100
AcDbSymbolTable
 70
     0
  0
ENDTAB
  0
TABLE
  2
UCS
  5
DCE2
330
0
100
AcDbSymbolTable
 70
     0
  0
ENDTAB
  0
TABLE
  2
APPID
  5
DCE4
330
0
100
AcDbSymbolTable
 70
     6
  0
APPID
  5
DCEB
330
DCE4
100
AcDbSymbolTableRecord
100
AcDbRegAppTableRecord
  2
ACAD
 70
     0
  0
APPID
  5
E64D
330
DCE4
100
AcDbSymbolTableRecord
100
AcDbRegAppTableRecord
  2
AVE_FINISH
 70
     0
  0
APPID
  5
EA18
330
DCE4
100
AcDbSymbolTableRecord
100
AcDbRegAppTableRecord
  2
AVE_RENDER
 70
     0
  0
APPID
  5
EA19
330
DCE4
100
AcDbSymbolTableRecord
100
AcDbRegAppTableRecord
  2
AVE_ENTITY_MATERIAL
 70
     0
  0
APPID
  5
EA26
330
DCE4
100
AcDbSymbolTableRecord
100
AcDbRegAppTableRecord
  2
AVE_MATERIAL
 70
     0
  0
APPID
  5
EA27
330
DCE4
100
AcDbSymbolTableRecord
100
AcDbRegAppTableRecord
  2
AVE_GLOBAL
 70
     0
  0
ENDTAB
  0
TABLE
  2
DIMSTYLE
  5
DCE5
330
0
100
AcDbSymbolTable
 70
     8
100
AcDbDimStyleTable
 71
     0
  0
DIMSTYLE
105
DD1C
330
DCE5
100
AcDbSymbolTableRecord
100
AcDbDimStyleTableRecord
  2
1-1
 70
     0
 41
2.0
 42
4.5
 43
0.0
 44
1.5
 45
0.01
 73
     0
 74
     0
 77
     1
 78
    12
140
1.8
141
0.0
146
1.25
147
1.0
179
     2
279
     2
284
    12
285
    12
286
    12
340
DD02
  0
ENDTAB
  0
TABLE
  2
BLOCK_RECORD
  5
DCDC
330
0
100
AcDbSymbolTable
 70
    25
  0
BLOCK_RECORD
  5
DCF2
102
{ACAD_XDICTIONARY
360
1586E
102
}
330
DCDC
100
AcDbSymbolTableRecord
100
AcDbBlockTableRecord
  2
*MODEL_SPACE
340
EBBF
  0
BLOCK_RECORD
  5
10777
102
{ACAD_XDICTIONARY
360
15847
102
}
330
DCDC
100
AcDbSymbolTableRecord
100
AcDbBlockTableRecord
  2
*Paper_Space
340
10778
  0
BLOCK_RECORD
  5
EA1B
330
DCDC
100
AcDbSymbolTableRecord
100
AcDbBlockTableRecord
  2
AVE_RENDER
340
0
102
{BLKREFS
331
EA1E
331
EA1F
331
EA20
331
EA21
331
EA22
331
EA23
331
EA24
331
EA25
102
}
  0
BLOCK_RECORD
  5
EA28
330
DCDC
100
AcDbSymbolTableRecord
100
AcDbBlockTableRecord
  2
AVE_GLOBAL
340
0
102
{BLKREFS
331
EA2B
102
}
  0
BLOCK_RECORD
  5
EA2C
330
DCDC
100
AcDbSymbolTableRecord
100
AcDbBlockTableRecord
  2
RM_SDB
340
0
102
{BLKREFS
331
EA46
331
EA61
102
}
  0
ENDTAB
  0
ENDSEC
  0
SECTION
  2
BLOCKS
  0
BLOCK
  5
DD38
330
DCF2
100
AcDbEntity
  8
0
100
AcDbBlockBegin
  2
*MODEL_SPACE
 70
     0
 10
0.0
 20
0.0
 30
0.0
  3
*MODEL_SPACE
  1

  0
ENDBLK
  5
DD39
330
DCF2
100
AcDbEntity
  8
0
100
AcDbBlockEnd
  0
BLOCK
  5
10779
330
10777
100
AcDbEntity
 67
     1
  8
0
100
AcDbBlockBegin
  2
*Paper_Space
 70
     0
 10
0.0
 20
0.0
 30
0.0
  3
*Paper_Space
  1

  0
ENDBLK
  5
1077A
330
10777
100
AcDbEntity
 67
     1
  8
0
100
AcDbBlockEnd
  0
BLOCK
  5
EA1C
330
EA1B
100
AcDbEntity
  8
ASHADE
100
AcDbBlockBegin
  2
AVE_RENDER
 70
     0
 10
0.0
 20
0.0
 30
0.0
  3
AVE_RENDER
  1
AVE_RENDER
  0
ENDBLK
  5
EA1D
330
EA1B
100
AcDbEntity
  8
0
100
AcDbBlockEnd
  0
BLOCK
  5
EA29
330
EA28
100
AcDbEntity
  8
ASHADE
100
AcDbBlockBegin
  2
AVE_GLOBAL
 70
     0
 10
0.0
 20
0.0
 30
0.0
  3
AVE_GLOBAL
  1
AVE_GLOBAL
  0
ENDBLK
  5
EA2A
330
EA28
100
AcDbEntity
  8
0
100
AcDbBlockEnd
  0
BLOCK
  5
EA2D
330
EA2C
100
AcDbEntity
  8
ASHADE
100
AcDbBlockBegin
  2
RM_SDB
 70
     2
 10
0.0
 20
0.0
 30
0.0
  3
RM_SDB
  1
RM_SDB
  0
ATTDEF
  5
EA2E
330
EA2C
100
AcDbEntity
  8
ANCON
100
AcDbText
 10
0.0
 20
0.0
 30
0.0
 40
0.2
  1

100
AcDbAttributeDefinition
  3

  2
NAME
 70
     1
  0
ATTDEF
  5
EA2F
330
EA2C
100
AcDbEntity
  8
ANCON
100
AcDbText
 10
0.0
 20
0.0
 30
0.0
 40
0.2
  1

100
AcDbAttributeDefinition
  3

  2
ACADCOLOR
 70
     1
  0
ATTDEF
  5
EA30
330
EA2C
100
AcDbEntity
  8
ANCON
100
AcDbText
 10
0.0
 20
0.0
 30
0.0
 40
0.2
  1

100
AcDbAttributeDefinition
  3

  2
COLOR
 70
     1
  0
ATTDEF
  5
EA31
330
EA2C
100
AcDbEntity
  8
ANCON
100
AcDbText
 10
0.0
 20
0.0
 30
0.0
 40
0.2
  1

100
AcDbAttributeDefinition
  3

  2
OPACITY
 70
     1
  0
ATTDEF
  5
EA32
330
EA2C
100
AcDbEntity
  8
ANCON
100
AcDbText
 10
0.0
 20
0.0
 30
0.0
 40
0.2
  1

100
AcDbAttributeDefinition
  3

  2
SURFACE
 70
     1
  0
ATTDEF
  5
EA33
330
EA2C
100
AcDbEntity
  8
ANCON
100
AcDbText
 10
0.0
 20
0.0
 30
0.0
 40
0.2
  1

100
AcDbAttributeDefinition
  3

  2
SURF1
 70
     1
  0
ATTDEF
  5
EA34
330
EA2C
100
AcDbEntity
  8
ANCON
100
AcDbText
 10
0.0
 20
0.0
 30
0.0
 40
0.2
  1

100
AcDbAttributeDefinition
  3

  2
SURF2
 70
     1
  0
ATTDEF
  5
EA35
330
EA2C
100
AcDbEntity
  8
ANCON
100
AcDbText
 10
0.0
 20
0.0
 30
0.0
 40
0.2
  1

100
AcDbAttributeDefinition
  3

  2
SURF3
 70
     1
  0
ATTDEF
  5
EA36
330
EA2C
100
AcDbEntity
  8
ANCON
100
AcDbText
 10
0.0
 20
0.0
 30
0.0
 40
0.2
  1

100
AcDbAttributeDefinition
  3

  2
SURF4
 70
     1
  0
ATTDEF
  5
EA37
330
EA2C
100
AcDbEntity
  8
ANCON
100
AcDbText
 10
0.0
 20
0.0
 30
0.0
 40
0.2
  1

100
AcDbAttributeDefinition
  3

  2
SHADINGRATE
 70
     1
  0
ATTDEF
  5
EA38
330
EA2C
100
AcDbEntity
  8
ANCON
100
AcDbText
 10
0.0
 20
0.0
 30
0.0
 40
0.2
  1

100
AcDbAttributeDefinition
  3

  2
DISPLACEMENT
 70
     1
  0
ATTDEF
  5
EA39
330
EA2C
100
AcDbEntity
  8
ANCON
100
AcDbText
 10
0.0
 20
0.0
 30
0.0
 40
0.2
  1

100
AcDbAttributeDefinition
  3

  2
DISP1
 70
     1
  0
ATTDEF
  5
EA3A
330
EA2C
100
AcDbEntity
  8
ANCON
100
AcDbText
 10
0.0
 20
0.0
 30
0.0
 40
0.2
  1

100
AcDbAttributeDefinition
  3

  2
DISP2
 70
     1
  0
ATTDEF
  5
EA3B
330
EA2C
100
AcDbEntity
  8
ANCON
100
AcDbText
 10
0.0
 20
0.0
 30
0.0
 40
0.2
  1

100
AcDbAttributeDefinition
  3

  2
DISP3
 70
     1
  0
ATTDEF
  5
EA3C
330
EA2C
100
AcDbEntity
  8
ANCON
100
AcDbText
 10
0.0
 20
0.0
 30
0.0
 40
0.2
  1

100
AcDbAttributeDefinition
  3

  2
DISP4
 70
     1
  0
ATTDEF
  5
EA3D
330
EA2C
100
AcDbEntity
  8
ANCON
100
AcDbText
 10
0.0
 20
0.0
 30
0.0
 40
0.2
  1

100
AcDbAttributeDefinition
  3

  2
DBOUND
 70
     1
  0
ATTDEF
  5
EA3E
330
EA2C
100
AcDbEntity
  8
ANCON
100
AcDbText
 10
0.0
 20
0.0
 30
0.0
 40
0.2
  1

100
AcDbAttributeDefinition
  3

  2
SMOOTH
 70
     1
  0
ATTDEF
  5
EA3F
330
EA2C
100
AcDbEntity
  8
ANCON
100
AcDbText
 10
0.0
 20
0.0
 30
0.0
 40
0.2
  1

100
AcDbAttributeDefinition
  3

  2
ATMOSHPERE
 70
     1
  0
ATTDEF
  5
EA40
330
EA2C
100
AcDbEntity
  8
ANCON
100
AcDbText
 10
0.0
 20
0.0
 30
0.0
 40
0.2
  1

100
AcDbAttributeDefinition
  3

  2
ATMO1
 70
     1
  0
ATTDEF
  5
EA41
330
EA2C
100
AcDbEntity
  8
ANCON
100
AcDbText
 10
0.0
 20
0.0
 30
0.0
 40
0.2
  1

100
AcDbAttributeDefinition
  3

  2
ATMO2
 70
     1
  0
ATTDEF
  5
EA42
330
EA2C
100
AcDbEntity
  8
ANCON
100
AcDbText
 10
0.0
 20
0.0
 30
0.0
 40
0.2
  1

100
AcDbAttributeDefinition
  3

  2
ATMO3
 70
     1
  0
ATTDEF
  5
EA43
330
EA2C
100
AcDbEntity
  8
ANCON
100
AcDbText
 10
0.0
 20
0.0
 30
0.0
 40
0.2
  1

100
AcDbAttributeDefinition
  3

  2
ATMO4
 70
     1
  0
ATTDEF
  5
EA44
330
EA2C
100
AcDbEntity
  8
ANCON
100
AcDbText
 10
0.0
 20
0.0
 30
0.0
 40
0.2
  1

100
AcDbAttributeDefinition
  3

  2
TCCORD
 70
     1
  0
ENDBLK
  5
EA45
330
EA2C
100
AcDbEntity
  8
0
100
AcDbBlockEnd
  0
ENDSEC
  0
SECTION
  2
ENTITIES
  0
INSERT
  5
EA1E
330
DCF2
100
AcDbEntity
  8
ASHADE
 62
     1
100
AcDbBlockReference
  2
AVE_RENDER
 10
0.0
 20
0.0
 30
0.0
1001
AVE_RENDER
1002
{
1070
     7
1000
Pref
1070
    50
1070
    20
1070
     1
1070
     0
1000

1070
    10
1070
     1
1070
    10
1040
1.0
1070
     1
1040
0.3
1040
0.7
1040
0.0
1040
10.0
1010
-1.0
1020
-1.0
1030
-1.0
1040
0.3
1070
    49
1070
     0
1070
     0
1010
1.0
1020
1.0
1030
1.0
1040
45.0
1070
     1
1070
     0
1000
WCS
1040
0.0
1070
     0
1040
10.0
1002
}
  0
INSERT
  5
EA1F
330
DCF2
100
AcDbEntity
  8
ASHADE
 62
     3
100
AcDbBlockReference
  2
AVE_RENDER
 10
0.0
 20
0.0
 30
0.0
1001
AVE_RENDER
1002
{
1070
     0
1000
Full Opt
1070
     0
1070
     1
1070
     1
1070
     1
1070
     0
1070
     0
1070
     0
1070
     1
1070
     1
1040
0.0001
1040
0.0001
1002
}
  0
INSERT
  5
EA20
330
DCF2
100
AcDbEntity
  8
ASHADE
 62
     4
100
AcDbBlockReference
  2
AVE_RENDER
 10
0.0
 20
0.0
 30
0.0
1001
AVE_RENDER
1002
{
1070
     0
1000
Quick Opt
1070
     0
1070
     1
1070
     1
1070
     1
1070
     0
1070
     0
1070
     1
1002
}
  0
INSERT
  5
EA21
330
DCF2
100
AcDbEntity
  8
ASHADE
 62
     5
100
AcDbBlockReference
  2
AVE_RENDER
 10
0.0
 20
0.0
 30
0.0
1001
AVE_RENDER
1002
{
1070
     1
1000
Scanl Opt
1070
     2
1070
     0
1070
     2
1040
2.0
1040
4.0
1070
     0
1070
     1
1070
     0
1040
0.03
1002
}
  0
INSERT
  5
EA22
330
DCF2
100
AcDbEntity
  8
ASHADE
 62
     6
100
AcDbBlockReference
  2
AVE_RENDER
 10
0.0
 20
0.0
 30
0.0
1001
AVE_RENDER
1002
{
1070
     2
1000
Raytr Opt
1070
     2
1070
     0
1070
     2
1040
2.0
1040
4.0
1070
     0
1070
     1
1070
     1
1040
0.03
1070
     3
1040
0.03
1002
}
  0
INSERT
  5
EA23
330
DCF2
100
AcDbEntity
  8
ASHADE
 62
     7
100
AcDbBlockReference
  2
AVE_RENDER
 10
0.0
 20
0.0
 30
0.0
1001
AVE_RENDER
1002
{
1070
     0
1000
RFile Opt
1070
     1
1070
   640
1070
   480
1070
 10000
1070
     1
1070
     8
1070
     8
1070
     0
1070
     0
1070
     0
1070
     0
1070
     0
1070
     0
1070
     0
1002
}
  0
INSERT
  5
EA24
330
DCF2
100
AcDbEntity
  8
ASHADE
 62
     8
100
AcDbBlockReference
  2
AVE_RENDER
 10
0.0
 20
0.0
 30
0.0
1001
AVE_RENDER
1002
{
1070
     0
1000
Fog Opt
1070
     0
1070
     0
1040
0.0
1040
1.0
1040
0.0
1040
1.0
1010
0.5
1020
0.5
1030
0.5
1002
}
  0
INSERT
  5
EA25
330
DCF2
100
AcDbEntity
  8
ASHADE
 62
     9
100
AcDbBlockReference
  2
AVE_RENDER
 10
0.0
 20
0.0
 30
0.0
1001
AVE_RENDER
1002
{
1070
     0
1000
BG Opt
1070
     0
1070
     0
1010
1.0
1020
1.0
1030
1.0
1010
1.0
1020
0.0
1030
0.0
1010
0.0
1020
1.0
1030
0.0
1010
0.0
1020
0.0
1030
1.0
1040
0.5
1040
0.33
1040
0.0
1000

1070
     1
1000

1070
     1
1070
     1
1040
1.0
1040
1.0
1040
0.0
1040
0.0
1070
     0
1002
}
  0
INSERT
  5
EA2B
330
DCF2
100
AcDbEntity
  8
ASHADE
 62
     1
100
AcDbBlockReference
  2
AVE_GLOBAL
 10
0.0
 20
0.0
 30
0.0
1001
AVE_MATERIAL
1002
{
1000
*GLOBAL*
1000
1
1000
Global finish.
1002
{
1002
}
1002
{
1070
    63
1002
{
1002
{
1010
-1.0
1020
-1.0
1030
-1.0
1002
}
1040
0.1000000014901161
1000

1040
0.0
1002
{
1002
}
1040
0.0
1002
{
1002
}
1040
0.0
1002
}
1002
{
1002
{
1010
-1.0
1020
-1.0
1030
-1.0
1002
}
1040
0.6999999880790711
1000

1040
0.0
1002
{
1002
}
1040
0.0
1002
{
1002
}
1040
0.0
1002
}
1002
{
1002
{
1010
-1.0
1020
-1.0
1030
-1.0
1002
}
1040
0.2000000029802322
1000

1040
0.0
1002
{
1002
}
1040
0.0
1002
{
1002
}
1040
0.0
1002
}
1002
{
1070
     0
1002
{
1070
     1
1002
{
1040
1.0
1040
1.0
1000

1040
0.0
1002
{
1002
}
1040
0.0
1002
{
1002
}
1040
0.0
1002
}
1002
}
1040
1.0
1040
0.0
1040
0.0
1002
}
1002
{
1040
1.0
1040
1.0
1000

1040
0.0
1002
{
1002
}
1040
0.0
1002
{
1002
}
1040
0.0
1002
}
1002
{
1040
0.5
1040
1.0
1000

1040
0.0
1002
{
1002
}
1040
0.0
1002
{
1002
}
1040
0.0
1002
}
1002
{
1070
     0
1040
0.0
1002
{
1002
}
1040
1.0
1002
{
1002
}
1040
0.0
1002
}
1002
{
1040
0.0
1002
{
1002
{
1010
0.0
1020
0.0
1030
0.0
1002
}
1040
1.0
1000

1040
0.0
1002
{
1002
}
1040
0.0
1002
{
1002
}
1040
0.0
1002
}
1002
}
1002
{
1002
{
1070
     1
1002
{
1040
0.0
1040
1.0
1000

1040
0.0
1002
{
1002
}
1040
0.0
1002
{
1002
}
1040
0.0
1002
}
1002
}
1040
0.0
1002
{
1002
}
1010
1.0
1020
0.0
1030
0.0
1010
0.0
1020
1.0
1030
0.0
1010
0.0
1020
0.0
1030
1.0
1070
     0
1002
}
1002
{
1002
{
1040
1.0
1040
1.0
1002
{
1070
     1
1002
{
1040
1.0
1040
1.0
1000

1040
0.0
1002
{
1002
}
1040
0.0
1002
{
1002
}
1040
0.0
1002
}
1002
}
1002
}
1070
     0
1040
0.0
1002
{
1002
}
1002
}
1002
{
1002
}
1002
}
1002
{
1071
        3
1070
     3
1070
     0
1002
{
1070
     2
1070
     0
1070
     0
1040
0.0
1002
}
1070
     0
1070
     2
1002
{
1002
}
1002
}
1002
{
1040
8030.0
1040
190.3000030517578
1040
0.3050000071525574
1040
228.0
1040
545.0
1040
14.0
1040
17.39999961853027
1040
0.4560000002384186
1002
}
1002
}
  0
INSERT
  5
EA46
330
DCF2
100
AcDbEntity
  8
ANCON
100
AcDbBlockReference
 66
     1
  2
RM_SDB
 10
0.0
 20
0.0
 30
0.0
1001
AVE_MATERIAL
1002
{
1000
CHROME LAKE
1000
1
1000

1002
{
1002
}
1002
{
1070
   295
1002
{
1002
{
1010
0.0
1020
0.0
1030
0.0
1002
}
1040
1.0
1000

1040
0.0
1002
{
1002
}
1040
0.0
1002
{
1002
}
1040
0.0
1002
}
1002
{
1002
{
1010
0.8500000238418579
1020
0.8500000238418579
1030
0.8500000238418579
1002
}
1040
1.0
1000

1040
0.0
1002
{
1002
}
1040
0.0
1002
{
1002
}
1040
0.0
1002
}
1002
{
1002
{
1010
0.874509811401367
1020
0.9411764740943906
1030
1.0
1002
}
1040
1.0
1000

1040
0.0
1002
{
1002
}
1040
0.0
1002
{
1002
}
1040
0.0
1002
}
1002
{
1070
     0
1002
{
1070
     1
1002
{
1040
1.0
1040
1.0
1000

1040
0.0
1002
{
1002
}
1040
0.0
1002
{
1002
}
1040
0.0
1002
}
1002
}
1040
0.0
1040
0.0
1040
0.0
1002
}
1002
{
1040
0.0
1040
0.0
1000

1040
0.0
1002
{
1002
}
1040
0.0
1002
{
1002
}
1040
0.0
1002
}
1002
{
1040
0.4000000059604645
1040
1.0
1000

1040
0.0
1002
{
1002
}
1040
0.0
1002
{
1002
}
1040
0.0
1002
}
1002
{
1070
     0
1040
0.0
1002
{
1002
}
1040
0.0
1002
{
1002
}
1040
0.0
1002
}
1002
{
1040
0.0
1002
{
1002
{
1010
0.0
1020
0.0
1030
0.0
1002
}
1040
0.0
1000

1040
0.0
1002
{
1002
}
1040
0.0
1002
{
1002
}
1040
0.0
1002
}
1002
}
1002
{
1002
{
1070
     1
1002
{
1040
1.0
1040
1.0
1000

1040
0.0
1002
{
1002
}
1040
0.0
1002
{
1002
}
1040
0.0
1002
}
1002
}
1040
1.0
1002
{
1002
{
1070
     1
1002
{
1002
{
1000
BIGLAKE.TGA
1002
{
1002
}
1070
     3
1070
     0
1002
{
1002
}
1002
}
1002
{
1002
{
1040
1.0
1040
0.0
1070
     1
1002
}
1002
{
1040
1.0
1040
0.0
1070
     1
1002
}
1040
0.0
1002
}
1002
}
1002
}
1002
{
1002
}
1002
}
1010
1.0
1020
0.0
1030
0.0
1010
0.0
1020
1.0
1030
0.0
1010
0.0
1020
0.0
1030
1.0
1070
     2
1002
}
1002
{
1002
{
1040
0.0
1040
0.0
1002
{
1070
     0
1002
}
1002
}
1070
     0
1040
0.0
1002
{
1002
}
1002
}
1002
{
1002
}
1002
}
1002
{
1071
        0
1070
     3
1070
     0
1002
{
1070
     2
1070
     1
1070
     0
1040
0.0
1002
}
1070
     0
1070
     0
1002
{
1002
}
1002
}
1002
{
1040
0.0
1040
0.0
1040
0.0
1040
0.0
1040
0.0
1040
0.0
1040
0.0
1040
0.0
1002
}
1002
}
  0
ATTRIB
  5
EA47
330
EA46
100
AcDbEntity
  8
ANCON
100
AcDbText
 10
0.0
 20
0.0
 30
0.0
 40
0.2
  1
CHROME LAKE
100
AcDbAttribute
  2
NAME
 70
     1
  0
ATTRIB
  5
EA48
330
EA46
100
AcDbEntity
  8
ANCON
100
AcDbText
 10
0.0
 20
0.0
 30
0.0
 40
0.2
  1

100
AcDbAttribute
  2
ACADCOLOR
 70
     1
  0
ATTRIB
  5
EA49
330
EA46
100
AcDbEntity
  8
ANCON
100
AcDbText
 10
0.0
 20
0.0
 30
0.0
 40
0.2
  1
0.8500,0.8500,0.8500
100
AcDbAttribute
  2
COLOR
 70
     1
  0
ATTRIB
  5
EA4A
330
EA46
100
AcDbEntity
  8
ANCON
100
AcDbText
 10
0.0
 20
0.0
 30
0.0
 40
0.2
  1
1.0,1.0,1.0
100
AcDbAttribute
  2
OPACITY
 70
     1
  0
ATTRIB
  5
EA4B
330
EA46
100
AcDbEntity
  8
ANCON
100
AcDbText
 10
0.0
 20
0.0
 30
0.0
 40
0.2
  1
("nullsurf" "")
100
AcDbAttribute
  2
SURFACE
 70
     1
  0
ATTRIB
  5
EA4C
330
EA46
100
AcDbEntity
  8
ANCON
100
AcDbText
 10
0.0
 20
0.0
 30
0.0
 40
0.2
  1
(11 "Ka" "1")(11 "Kd" "1")(11 "Ks" "1")(11 "roughness" "0.4")
100
AcDbAttribute
  2
SURF1
 70
     1
  0
ATTRIB
  5
EA4D
330
EA46
100
AcDbEntity
  8
ANCON
100
AcDbText
 10
0.0
 20
0.0
 30
0.0
 40
0.2
  1

100
AcDbAttribute
  2
SURF2
 70
     1
  0
ATTRIB
  5
EA4E
330
EA46
100
AcDbEntity
  8
ANCON
100
AcDbText
 10
0.0
 20
0.0
 30
0.0
 40
0.2
  1

100
AcDbAttribute
  2
SURF3
 70
     1
  0
ATTRIB
  5
EA4F
330
EA46
100
AcDbEntity
  8
ANCON
100
AcDbText
 10
0.0
 20
0.0
 30
0.0
 40
0.2
  1

100
AcDbAttribute
  2
SURF4
 70
     1
  0
ATTRIB
  5
EA50
330
EA46
100
AcDbEntity
  8
ANCON
100
AcDbText
 10
0.0
 20
0.0
 30
0.0
 40
0.2
  1
-1.0
100
AcDbAttribute
  2
SHADINGRATE
 70
     1
  0
ATTRIB
  5
EA51
330
EA46
100
AcDbEntity
  8
ANCON
100
AcDbText
 10
0.0
 20
0.0
 30
0.0
 40
0.2
  1
("nulldisp" "")
100
AcDbAttribute
  2
DISPLACEMENT
 70
     1
  0
ATTRIB
  5
EA52
330
EA46
100
AcDbEntity
  8
ANCON
100
AcDbText
 10
0.0
 20
0.0
 30
0.0
 40
0.2
  1

100
AcDbAttribute
  2
DISP1
 70
     1
  0
ATTRIB
  5
EA53
330
EA46
100
AcDbEntity
  8
ANCON
100
AcDbText
 10
0.0
 20
0.0
 30
0.0
 40
0.2
  1

100
AcDbAttribute
  2
DISP2
 70
     1
  0
ATTRIB
  5
EA54
330
EA46
100
AcDbEntity
  8
ANCON
100
AcDbText
 10
0.0
 20
0.0
 30
0.0
 40
0.2
  1

100
AcDbAttribute
  2
DISP3
 70
     1
  0
ATTRIB
  5
EA55
330
EA46
100
AcDbEntity
  8
ANCON
100
AcDbText
 10
0.0
 20
0.0
 30
0.0
 40
0.2
  1

100
AcDbAttribute
  2
DISP4
 70
     1
  0
ATTRIB
  5
EA56
330
EA46
100
AcDbEntity
  8
ANCON
100
AcDbText
 10
0.0
 20
0.0
 30
0.0
 40
0.2
  1
0.0
100
AcDbAttribute
  2
DBOUND
 70
     1
  0
ATTRIB
  5
EA57
330
EA46
100
AcDbEntity
  8
ANCON
100
AcDbText
 10
0.0
 20
0.0
 30
0.0
 40
0.2
  1
0
100
AcDbAttribute
  2
SMOOTH
 70
     1
  0
ATTRIB
  5
EA58
330
EA46
100
AcDbEntity
  8
ANCON
100
AcDbText
 10
0.0
 20
0.0
 30
0.0
 40
0.2
  1
("" "")
100
AcDbAttribute
  2
ATMOSHPERE
 70
     1
  0
ATTRIB
  5
EA59
330
EA46
100
AcDbEntity
  8
ANCON
100
AcDbText
 10
0.0
 20
0.0
 30
0.0
 40
0.2
  1

100
AcDbAttribute
  2
ATMO1
 70
     1
  0
ATTRIB
  5
EA5A
330
EA46
100
AcDbEntity
  8
ANCON
100
AcDbText
 10
0.0
 20
0.0
 30
0.0
 40
0.2
  1

100
AcDbAttribute
  2
ATMO2
 70
     1
  0
ATTRIB
  5
EA5B
330
EA46
100
AcDbEntity
  8
ANCON
100
AcDbText
 10
0.0
 20
0.0
 30
0.0
 40
0.2
  1

100
AcDbAttribute
  2
ATMO3
 70
     1
  0
ATTRIB
  5
EA5C
330
EA46
100
AcDbEntity
  8
ANCON
100
AcDbText
 10
0.0
 20
0.0
 30
0.0
 40
0.2
  1

100
AcDbAttribute
  2
ATMO4
 70
     1
  0
ATTRIB
  5
EA5D
330
EA46
100
AcDbEntity
  8
ANCON
100
AcDbText
 10
0.0
 20
0.0
 30
0.0
 40
0.2
  1
0.0 0.0 1.0 0.0 0.0 1.0 1.0 1.0
100
AcDbAttribute
  2
TCCORD
 70
     1
  0
SEQEND
  5
EA5E
330
EA46
100
AcDbEntity
  8
ANCON
  0
INSERT
  5
EA61
330
DCF2
100
AcDbEntity
  8
ANCON
100
AcDbBlockReference
 66
     1
  2
RM_SDB
 10
0.0
 20
0.0
 30
0.0
1001
AVE_MATERIAL
1002
{
1000
GRAY MARBLE
1000
1
1000

1002
{
1002
}
1002
{
1070
    39
1002
{
1002
{
1010
0.0
1020
0.0
1030
0.0
1002
}
1040
1.0
1000

1040
0.0
1002
{
1002
}
1040
0.0
1002
{
1002
}
1040
0.0
1002
}
1002
{
1002
{
1010
0.0
1020
0.0
1030
0.0
1002
}
1040
1.0
1000

1040
0.0
1002
{
1002
{
1070
     1
1002
{
1002
{
1000
GRAYMARB.TGA
1002
{
1002
}
1070
     3
1070
     0
1002
{
1002
}
1002
}
1002
{
1002
{
1040
1.0
1040
0.0
1070
     1
1002
}
1002
{
1040
1.0
1040
0.0
1070
     1
1002
}
1040
0.0
1002
}
1002
}
1002
}
1002
{
1002
}
1002
}
1040
1.0
1002
{
1002
}
1040
0.0
1002
}
1002
{
1002
{
1010
1.0
1020
1.0
1030
1.0
1002
}
1040
1.0
1000

1040
0.0
1002
{
1002
}
1040
0.0
1002
{
1002
}
1040
0.0
1002
}
1002
{
1070
     0
1002
{
1070
     1
1002
{
1040
1.0
1040
1.0
1000

1040
0.0
1002
{
1002
}
1040
0.0
1002
{
1002
}
1040
0.0
1002
}
1002
}
1040
0.0
1040
0.0
1040
0.0
1002
}
1002
{
1040
0.0
1040
0.0
1000

1040
0.0
1002
{
1002
}
1040
0.0
1002
{
1002
}
1040
0.0
1002
}
1002
{
1040
0.6600000262260437
1040
1.0
1000

1040
0.0
1002
{
1002
}
1040
0.0
1002
{
1002
}
1040
0.0
1002
}
1002
{
1070
     0
1040
0.0
1002
{
1002
}
1040
0.0
1002
{
1002
}
1040
0.0
1002
}
1002
{
1040
0.0
1002
{
1002
{
1010
0.0
1020
0.0
1030
0.0
1002
}
1040
0.0
1000

1040
0.0
1002
{
1002
}
1040
0.0
1002
{
1002
}
1040
0.0
1002
}
1002
}
1002
{
1002
{
1070
     1
1002
{
1040
0.0
1040
1.0
1000

1040
0.0
1002
{
1002
}
1040
0.0
1002
{
1002
}
1040
0.0
1002
}
1002
}
1040
0.0
1002
{
1002
}
1010
0.0
1020
0.0
1030
0.0
1010
0.0
1020
0.0
1030
0.0
1010
0.0
1020
0.0
1030
0.0
1070
     0
1002
}
1002
{
1002
{
1040
0.0
1040
0.0
1002
{
1070
     0
1002
}
1002
}
1070
     0
1040
0.0
1002
{
1002
}
1002
}
1002
{
1002
}
1002
}
1002
{
1071
        0
1070
     3
1070
     0
1002
{
1070
     2
1070
     1
1070
     0
1040
0.0
1002
}
1070
     0
1070
     0
1002
{
1002
}
1002
}
1002
{
1040
0.0
1040
0.0
1040
0.0
1040
0.0
1040
0.0
1040
0.0
1040
0.0
1040
0.0
1002
}
1002
}
  0
ATTRIB
  5
EA62
330
EA61
100
AcDbEntity
  8
ANCON
100
AcDbText
 10
0.0
 20
0.0
 30
0.0
 40
0.2
  1
GRAY MARBLE
100
AcDbAttribute
  2
NAME
 70
     1
  0
ATTRIB
  5
EA63
330
EA61
100
AcDbEntity
  8
ANCON
100
AcDbText
 10
0.0
 20
0.0
 30
0.0
 40
0.2
  1
 
100
AcDbAttribute
  2
ACADCOLOR
 70
     1
  0
ATTRIB
  5
EA64
330
EA61
100
AcDbEntity
  8
ANCON
100
AcDbText
 10
0.0
 20
0.0
 30
0.0
 40
0.2
  1
0.0000,0.0000,0.0000
100
AcDbAttribute
  2
COLOR
 70
     1
  0
ATTRIB
  5
EA65
330
EA61
100
AcDbEntity
  8
ANCON
100
AcDbText
 10
0.0
 20
0.0
 30
0.0
 40
0.2
  1
1.0,1.0,1.0
100
AcDbAttribute
  2
OPACITY
 70
     1
  0
ATTRIB
  5
EA66
330
EA61
100
AcDbEntity
  8
ANCON
100
AcDbText
 10
0.0
 20
0.0
 30
0.0
 40
0.2
  1
("nullsurf" "")
100
AcDbAttribute
  2
SURFACE
 70
     1
  0
ATTRIB
  5
EA67
330
EA61
100
AcDbEntity
  8
ANCON
100
AcDbText
 10
0.0
 20
0.0
 30
0.0
 40
0.2
  1
(11 "Ka" "1")(11 "Kd" "1")(11 "Ks" "1")(11 "roughness" "0.66")
100
AcDbAttribute
  2
SURF1
 70
     1
  0
ATTRIB
  5
EA68
330
EA61
100
AcDbEntity
  8
ANCON
100
AcDbText
 10
0.0
 20
0.0
 30
0.0
 40
0.2
  1

100
AcDbAttribute
  2
SURF2
 70
     1
  0
ATTRIB
  5
EA69
330
EA61
100
AcDbEntity
  8
ANCON
100
AcDbText
 10
0.0
 20
0.0
 30
0.0
 40
0.2
  1

100
AcDbAttribute
  2
SURF3
 70
     1
  0
ATTRIB
  5
EA6A
330
EA61
100
AcDbEntity
  8
ANCON
100
AcDbText
 10
0.0
 20
0.0
 30
0.0
 40
0.2
  1

100
AcDbAttribute
  2
SURF4
 70
     1
  0
ATTRIB
  5
EA6B
330
EA61
100
AcDbEntity
  8
ANCON
100
AcDbText
 10
0.0
 20
0.0
 30
0.0
 40
0.2
  1
-1.0
100
AcDbAttribute
  2
SHADINGRATE
 70
     1
  0
ATTRIB
  5
EA6C
330
EA61
100
AcDbEntity
  8
ANCON
100
AcDbText
 10
0.0
 20
0.0
 30
0.0
 40
0.2
  1
("nulldisp" "")
100
AcDbAttribute
  2
DISPLACEMENT
 70
     1
  0
ATTRIB
  5
EA6D
330
EA61
100
AcDbEntity
  8
ANCON
100
AcDbText
 10
0.0
 20
0.0
 30
0.0
 40
0.2
  1

100
AcDbAttribute
  2
DISP1
 70
     1
  0
ATTRIB
  5
EA6E
330
EA61
100
AcDbEntity
  8
ANCON
100
AcDbText
 10
0.0
 20
0.0
 30
0.0
 40
0.2
  1

100
AcDbAttribute
  2
DISP2
 70
     1
  0
ATTRIB
  5
EA6F
330
EA61
100
AcDbEntity
  8
ANCON
100
AcDbText
 10
0.0
 20
0.0
 30
0.0
 40
0.2
  1

100
AcDbAttribute
  2
DISP3
 70
     1
  0
ATTRIB
  5
EA70
330
EA61
100
AcDbEntity
  8
ANCON
100
AcDbText
 10
0.0
 20
0.0
 30
0.0
 40
0.2
  1

100
AcDbAttribute
  2
DISP4
 70
     1
  0
ATTRIB
  5
EA71
330
EA61
100
AcDbEntity
  8
ANCON
100
AcDbText
 10
0.0
 20
0.0
 30
0.0
 40
0.2
  1
0.0
100
AcDbAttribute
  2
DBOUND
 70
     1
  0
ATTRIB
  5
EA72
330
EA61
100
AcDbEntity
  8
ANCON
100
AcDbText
 10
0.0
 20
0.0
 30
0.0
 40
0.2
  1
0
100
AcDbAttribute
  2
SMOOTH
 70
     1
  0
ATTRIB
  5
EA73
330
EA61
100
AcDbEntity
  8
ANCON
100
AcDbText
 10
0.0
 20
0.0
 30
0.0
 40
0.2
  1
("" "")
100
AcDbAttribute
  2
ATMOSHPERE
 70
     1
  0
ATTRIB
  5
EA74
330
EA61
100
AcDbEntity
  8
ANCON
100
AcDbText
 10
0.0
 20
0.0
 30
0.0
 40
0.2
  1

100
AcDbAttribute
  2
ATMO1
 70
     1
  0
ATTRIB
  5
EA75
330
EA61
100
AcDbEntity
  8
ANCON
100
AcDbText
 10
0.0
 20
0.0
 30
0.0
 40
0.2
  1

100
AcDbAttribute
  2
ATMO2
 70
     1
  0
ATTRIB
  5
EA76
330
EA61
100
AcDbEntity
  8
ANCON
100
AcDbText
 10
0.0
 20
0.0
 30
0.0
 40
0.2
  1

100
AcDbAttribute
  2
ATMO3
 70
     1
  0
ATTRIB
  5
EA77
330
EA61
100
AcDbEntity
  8
ANCON
100
AcDbText
 10
0.0
 20
0.0
 30
0.0
 40
0.2
  1

100
AcDbAttribute
  2
ATMO4
 70
     1
  0
ATTRIB
  5
EA78
330
EA61
100
AcDbEntity
  8
ANCON
100
AcDbText
 10
0.0
 20
0.0
 30
0.0
 40
0.2
  1
0.0 0.0 1.0 0.0 0.0 1.0 1.0 1.0
100
AcDbAttribute
  2
TCCORD
 70
     1
  0
SEQEND
  5
EA79
330
EA61
100
AcDbEntity
  8
ANCON
  0
MTEXT
  5
F39D
330
DCF2
100
AcDbEntity
  8
DIMS
100
AcDbMText
 10
167.3257715899594
 20
271.1240525690643
 30
0.0
 40
1.8
 41
0.0
 71
     1
 72
     1
  1
\A1; 
  7
ROMANS
 73
     1
 44
1.0
1001
ACAD
1000
MTEXTBEGIN
1070
    73
1070
     1
1070
    44
1040
1.0
1070
    74
1070
     0
1000
MTEXTEND
  0
MTEXT
  5
F39F
330
DCF2
100
AcDbEntity
  8
DIMS
100
AcDbMText
 10
172.8591319803946
 20
271.1240525690643
 30
0.0
 40
1.8
 41
0.0
 71
     1
 72
     1
  1
\A1;  
  7
ROMANS
 73
     1
 44
1.0
1001
ACAD
1000
MTEXTBEGIN
1070
    73
1070
     1
1070
    44
1040
1.0
1070
    74
1070
     0
1000
MTEXTEND
  0
LINE
  5
1568F
330
DCF2
100
AcDbEntity
  8
Ancontension
100
AcDbLine
 10
3166.930958599482
 20
-501.9350438620655
 30
0.0
 11
3343.545944280396
 21
-501.9350438620659
 31
0.0
  0
LINE
  5
15690
330
DCF2
100
AcDbEntity
  8
Ancontension
100
AcDbLine
 10
3166.930958599482
 20
-489.9350438620656
 30
0.0
 11
3343.545944280396
 21
-489.9350438620659
 31
0.0
  0
LINE
  5
15691
330
DCF2
100
AcDbEntity
  8
Ancontension
100
AcDbLine
 10
3166.930958599483
 20
-266.93189554428
 30
0.0
 11
3242.510529378582
 21
-191.35232476518
 31
0.0
  0
LINE
  5
15692
330
DCF2
100
AcDbEntity
  8
Ancontension
100
AcDbLine
 10
3166.930958599483
 20
-266.93189554428
 30
0.0
 11
3343.545944280396
 21
-266.93189554428
 31
0.0
  0
LINE
  5
15693
330
DCF2
100
AcDbEntity
  8
Ancontension
100
AcDbLine
 10
3166.93095859948
 20
-387.9318955442797
 30
0.0
 11
3343.5459442804
 21
-387.9318955442797
 31
0.0
  0
LINE
  5
15694
330
DCF2
100
AcDbEntity
  8
Ancontension
  6
HIDDEN1_02
100
AcDbLine
 10
3140.238451439939
 20
-355.4318955442777
 30
0.0
 11
3241.23845143994
 21
-355.4318955442777
 31
0.0
  0
LINE
  5
15695
330
DCF2
100
AcDbEntity
  8
Ancontension
  6
HIDDEN1_02
100
AcDbLine
 10
3140.238451439939
 20
-299.4318955442776
 30
0.0
 11
3241.23845143994
 21
-299.4318955442776
 31
0.0
  0
LINE
  5
15698
330
DCF2
100
AcDbEntity
  8
Ancontension
100
AcDbLine
 10
3166.930958599483
 20
-435.4350438620649
 30
0.0
 11
3343.545944280396
 21
-435.4350438620649
 31
0.0
  0
LINE
  5
15699
330
DCF2
100
AcDbEntity
  8
Ancontension
  6
HIDDEN1_02
100
AcDbLine
 10
3140.238451439939
 20
-523.9350438620625
 30
0.0
 11
3241.23845143994
 21
-523.9350438620625
 31
0.0
  0
LINE
  5
1569A
330
DCF2
100
AcDbEntity
  8
Ancontension
  6
HIDDEN1_02
100
AcDbLine
 10
3140.238451439939
 20
-467.9350438620627
 30
0.0
 11
3241.23845143994
 21
-467.9350438620625
 31
0.0
  0
LINE
  5
1569B
330
DCF2
100
AcDbEntity
  8
Ancontension
100
AcDbLine
 10
3166.93095859948
 20
-556.4350438620648
 30
0.0
 11
3343.5459442804
 21
-556.4350438620648
 31
0.0
  0
LINE
  5
1569C
330
DCF2
100
AcDbEntity
  8
Ancontension
100
AcDbLine
 10
3140.238451439939
 20
-440.7936477744071
 30
0.0
 11
3140.238451439941
 21
-551.0764399497234
 31
0.0
  0
LINE
  5
1569D
330
DCF2
100
AcDbEntity
  8
Ancontension
100
AcDbLine
 10
3140.238451439941
 20
-551.748661910716
 30
0.0
 11
3140.238451439939
 21
-440.1214258134143
 31
0.0
  0
LINE
  5
1569E
330
DCF2
100
AcDbEntity
  8
Ancontension
100
AcDbLine
 10
3032.238451439939
 20
-537.2286675532746
 30
0.0
 11
3032.238451439939
 21
-454.6414201708557
 31
0.0
  0
LINE
  5
1569F
330
DCF2
100
AcDbEntity
  8
Ancontension
  6
HIDDEN1_02
100
AcDbLine
 10
3086.238451439939
 20
-467.4350438620652
 30
0.0
 11
3086.238451439939
 21
-524.435043862065
 31
0.0
  0
ELLIPSE
  5
156A0
330
DCF2
100
AcDbEntity
  8
Ancontension
100
AcDbEllipse
 10
3122.174393181788
 20
-535.2299496283435
 30
0.0
 11
4.25
 21
0.0
 31
0.0
210
0.0
220
0.0
230
1.0
 40
0.70710678118652
 41
0.0
 42
6.283185307179585
  0
LINE
  5
156A1
330
DCF2
100
AcDbEntity
  8
Ancontension
100
AcDbLine
 10
3034.405337542718
 20
-539.7063751896753
 30
0.0
 11
3137.405337542719
 21
-553.5541475861241
 31
0.0
  0
LINE
  5
156A2
330
DCF2
100
AcDbEntity
  8
Ancontension
  6
HIDDEN1_02
100
AcDbLine
 10
3140.238451439939
 20
-523.935043862065
 30
0.0
 11
3086.238451439939
 21
-523.935043862065
 31
0.0
  0
LINE
  5
156A3
330
DCF2
100
AcDbEntity
  8
Ancontension
  6
HIDDEN1_02
100
AcDbLine
 10
3086.238451439939
 20
-524.435043862065
 30
0.0
 11
3032.238451439939
 21
-524.435043862065
 31
0.0
  0
ARC
  5
156A4
330
DCF2
100
AcDbEntity
  8
Ancontension
100
AcDbCircle
 10
3034.73845143994
 20
-537.2286675532746
 30
0.0
 40
2.5
100
AcDbArc
 50
180.0
 51
262.3428187224131
  0
ARC
  5
156A5
330
DCF2
100
AcDbEntity
  8
Ancontension
100
AcDbCircle
 10
3166.930958599479
 20
-435.4350438620648
 30
0.0
 40
121.0
100
AcDbArc
 50
262.3428187224131
 51
270.0
  0
ARC
  5
156A6
330
DCF2
100
AcDbEntity
  8
Ancontension
100
AcDbCircle
 10
3137.738451439941
 20
-551.0764399497234
 30
0.0
 40
2.5
100
AcDbArc
 50
262.3428187224131
 51
0.0
  0
ARC
  5
156A7
330
DCF2
100
AcDbEntity
  8
Ancontension
100
AcDbCircle
 10
3142.738451439941
 20
-551.748661910716
 30
0.0
 40
2.5
100
AcDbArc
 50
180.0
 51
262.3428187224131
  0
LINE
  5
156A8
330
DCF2
100
AcDbEntity
  8
Ancontension
100
AcDbLine
 10
3142.405337542719
 20
-554.2263695471167
 30
0.0
 11
3150.808245973956
 21
-555.3560934638539
 31
0.0
  0
LINE
  5
156A9
330
DCF2
100
AcDbEntity
  8
Ancontension
100
AcDbLine
 10
3166.930958599482
 20
-489.9350438620656
 30
0.0
 11
3166.930958599482
 21
-501.9350438620655
 31
0.0
  0
ELLIPSE
  5
156AA
330
DCF2
100
AcDbEntity
  8
Ancontension
100
AcDbEllipse
 10
3122.174393181788
 20
-366.7268013105584
 30
0.0
 11
4.25
 21
0.0
 31
0.0
210
0.0
220
0.0
230
1.0
 40
0.70710678118652
 41
0.0
 42
6.283185307179585
  0
LINE
  5
156AC
330
DCF2
100
AcDbEntity
  8
Ancontension
100
AcDbLine
 10
3140.238451439941
 20
-383.2455135929311
 30
0.0
 11
3140.238451439939
 21
-271.6182774956295
 31
0.0
  0
LINE
  5
156AD
330
DCF2
100
AcDbEntity
  8
Ancontension
100
AcDbLine
 10
3140.238451439939
 20
-272.2904994566221
 30
0.0
 11
3140.238451439941
 21
-382.5732916319385
 31
0.0
  0
LINE
  5
156AE
330
DCF2
100
AcDbEntity
  8
Ancontension
100
AcDbLine
 10
3032.238451439939
 20
-368.7255192354896
 30
0.0
 11
3032.238451439939
 21
-286.1382718530708
 31
0.0
  0
ELLIPSE
  5
156AF
330
DCF2
100
AcDbEntity
  8
Ancontension
100
AcDbEllipse
 10
3122.174393181788
 20
-456.6401380957868
 30
0.0
 11
4.25
 21
0.0
 31
0.0
210
0.0
220
0.0
230
-1.0
 40
0.70710678118652
 41
0.0
 42
6.283185307179585
  0
LINE
  5
156B0
330
DCF2
100
AcDbEntity
  8
Ancontension
100
AcDbLine
 10
3034.405337542718
 20
-371.2032268718903
 30
0.0
 11
3137.405337542719
 21
-385.0509992683392
 31
0.0
  0
LINE
  5
156B1
330
DCF2
100
AcDbEntity
  8
Ancontension
100
AcDbLine
 10
3034.405337542718
 20
-452.1637125344551
 30
0.0
 11
3137.405337542718
 21
-438.3159401380065
 31
0.0
  0
LINE
  5
156B2
330
DCF2
100
AcDbEntity
  8
Ancontension
  6
HIDDEN1_02
100
AcDbLine
 10
3140.238451439939
 20
-467.9350438620652
 30
0.0
 11
3086.238451439939
 21
-467.9350438620652
 31
0.0
  0
LINE
  5
156B3
330
DCF2
100
AcDbEntity
  8
Ancontension
  6
HIDDEN1_02
100
AcDbLine
 10
3086.238451439939
 20
-467.4350438620652
 30
0.0
 11
3032.238451439939
 21
-467.4350438620652
 31
0.0
  0
ARC
  5
156B4
330
DCF2
100
AcDbEntity
  8
Ancontension
100
AcDbCircle
 10
3034.73845143994
 20
-454.6414201708557
 30
0.0
 40
2.5
100
AcDbArc
 50
97.65718127758674
 51
180.0
  0
ARC
  5
156B5
330
DCF2
100
AcDbEntity
  8
Ancontension
100
AcDbCircle
 10
3034.73845143994
 20
-368.7255192354896
 30
0.0
 40
2.5
100
AcDbArc
 50
180.0
 51
262.3428187224131
  0
ARC
  5
156B6
330
DCF2
100
AcDbEntity
  8
Ancontension
100
AcDbCircle
 10
3166.930958599484
 20
-556.4350438620648
 30
0.0
 40
121.0
100
AcDbArc
 50
90.0
 51
97.65718127758674
  0
ARC
  5
156B7
330
DCF2
100
AcDbEntity
  8
Ancontension
100
AcDbCircle
 10
3137.738451439939
 20
-440.7936477744071
 30
0.0
 40
2.5
100
AcDbArc
 50
0.0
 51
97.65718127758674
  0
ARC
  5
156B8
330
DCF2
100
AcDbEntity
  8
Ancontension
100
AcDbCircle
 10
3142.738451439939
 20
-440.1214258134143
 30
0.0
 40
2.5
100
AcDbArc
 50
97.65718127758674
 51
180.0
  0
LINE
  5
156B9
330
DCF2
100
AcDbEntity
  8
Ancontension
100
AcDbLine
 10
3142.405337542719
 20
-437.6437181770137
 30
0.0
 11
3150.808245973961
 21
-436.5139942602756
 31
0.0
  0
ARC
  5
156BA
330
DCF2
100
AcDbEntity
  8
Ancontension
100
AcDbCircle
 10
3166.930958599479
 20
-266.9318955442798
 30
0.0
 40
121.0
100
AcDbArc
 50
262.3428187224131
 51
270.0
  0
ARC
  5
156BB
330
DCF2
100
AcDbEntity
  8
Ancontension
100
AcDbCircle
 10
3137.738451439941
 20
-382.5732916319385
 30
0.0
 40
2.5
100
AcDbArc
 50
262.3428187224131
 51
0.0
  0
LINE
  5
156BC
330
DCF2
100
AcDbEntity
  8
Ancontension
100
AcDbLine
 10
3142.405337542719
 20
-385.7232212293316
 30
0.0
 11
3150.808245973956
 21
-386.8529451460691
 31
0.0
  0
ARC
  5
156BD
330
DCF2
100
AcDbEntity
  8
Ancontension
100
AcDbCircle
 10
3142.738451439941
 20
-383.2455135929311
 30
0.0
 40
2.5
100
AcDbArc
 50
180.0
 51
262.3428187224131
  0
ELLIPSE
  5
156BE
330
DCF2
100
AcDbEntity
  8
Ancontension
100
AcDbEllipse
 10
3122.174393181788
 20
-288.1369897780018
 30
0.0
 11
4.25
 21
0.0
 31
0.0
210
0.0
220
0.0
230
-1.0
 40
0.70710678118652
 41
0.0
 42
6.283185307179585
  0
LINE
  5
156BF
330
DCF2
100
AcDbEntity
  8
Ancontension
100
AcDbLine
 10
3034.405337542718
 20
-283.6605642166702
 30
0.0
 11
3137.405337542718
 21
-269.8127918202215
 31
0.0
  0
LINE
  5
156C0
330
DCF2
100
AcDbEntity
  8
Ancontension
  6
HIDDEN1_02
100
AcDbLine
 10
3140.238451439939
 20
-355.4318955442801
 30
0.0
 11
3086.238451439939
 21
-355.4318955442801
 31
0.0
  0
LINE
  5
156C1
330
DCF2
100
AcDbEntity
  8
Ancontension
  6
HIDDEN1_02
100
AcDbLine
 10
3140.238451439939
 20
-299.4318955442802
 30
0.0
 11
3086.238451439939
 21
-299.4318955442802
 31
0.0
  0
LINE
  5
156C2
330
DCF2
100
AcDbEntity
  8
Ancontension
  6
HIDDEN1_02
100
AcDbLine
 10
3086.238451439939
 20
-298.9318955442802
 30
0.0
 11
3032.238451439939
 21
-298.9318955442802
 31
0.0
  0
LINE
  5
156C3
330
DCF2
100
AcDbEntity
  8
Ancontension
  6
HIDDEN1_02
100
AcDbLine
 10
3086.238451439939
 20
-355.9318955442801
 30
0.0
 11
3032.238451439939
 21
-355.9318955442801
 31
0.0
  0
LINE
  5
156C4
330
DCF2
100
AcDbEntity
  8
Ancontension
  6
HIDDEN1_02
100
AcDbLine
 10
3086.238451439939
 20
-298.9318955442802
 30
0.0
 11
3086.238451439939
 21
-355.9318955442801
 31
0.0
  0
ARC
  5
156C5
330
DCF2
100
AcDbEntity
  8
Ancontension
100
AcDbCircle
 10
3034.73845143994
 20
-286.1382718530708
 30
0.0
 40
2.5
100
AcDbArc
 50
97.65718127758674
 51
180.0
  0
ARC
  5
156C7
330
DCF2
100
AcDbEntity
  8
Ancontension
100
AcDbCircle
 10
3166.930958599484
 20
-387.93189554428
 30
0.0
 40
121.0
100
AcDbArc
 50
90.0
 51
97.65718127758674
  0
ARC
  5
156C8
330
DCF2
100
AcDbEntity
  8
Ancontension
100
AcDbCircle
 10
3137.738451439939
 20
-272.2904994566221
 30
0.0
 40
2.5
100
AcDbArc
 50
0.0
 51
97.65718127758674
  0
LINE
  5
156C9
330
DCF2
100
AcDbEntity
  8
Ancontension
100
AcDbLine
 10
3142.405337542719
 20
-269.1405698592288
 30
0.0
 11
3150.808245973961
 21
-268.0108459424906
 31
0.0
  0
ARC
  5
156CA
330
DCF2
100
AcDbEntity
  8
Ancontension
100
AcDbCircle
 10
3142.738451439939
 20
-271.6182774956295
 30
0.0
 40
2.5
100
AcDbArc
 50
97.65718127758674
 51
180.0
  0
LINE
  5
156CB
330
DCF2
100
AcDbEntity
  8
Ancontension
100
AcDbLine
 10
3370.238451439939
 20
-440.7936477744072
 30
0.0
 11
3370.238451439937
 21
-551.0764399497235
 31
0.0
  0
LINE
  5
156CC
330
DCF2
100
AcDbEntity
  8
Ancontension
  6
HIDDEN1_02
100
AcDbLine
 10
3424.238451439939
 20
-467.4350438620653
 30
0.0
 11
3424.238451439939
 21
-524.4350438620653
 31
0.0
  0
LINE
  5
156CD
330
DCF2
100
AcDbEntity
  8
Ancontension
100
AcDbLine
 10
3478.238451439938
 20
-537.2286675532746
 30
0.0
 11
3478.238451439938
 21
-454.6414201708557
 31
0.0
  0
LINE
  5
156CE
330
DCF2
100
AcDbEntity
  8
Ancontension
100
AcDbLine
 10
3370.238451439937
 20
-551.748661910716
 30
0.0
 11
3370.238451439939
 21
-440.1214258134143
 31
0.0
  0
ARC
  5
156D0
330
DCF2
100
AcDbEntity
  8
Ancontension
100
AcDbCircle
 10
3343.545944280401
 20
-435.4350438620648
 30
0.0
 40
121.0
100
AcDbArc
 50
270.0
 51
277.6571812775866
  0
ARC
  5
156D1
330
DCF2
100
AcDbEntity
  8
Ancontension
100
AcDbCircle
 10
3367.738451439937
 20
-551.748661910716
 30
0.0
 40
2.5
100
AcDbArc
 50
277.6571812775866
 51
0.0
  0
LINE
  5
156D2
330
DCF2
100
AcDbEntity
  8
Ancontension
100
AcDbLine
 10
3368.07156533716
 20
-554.2263695471167
 30
0.0
 11
3359.668656905923
 21
-555.3560934638539
 31
0.0
  0
LINE
  5
156D3
330
DCF2
100
AcDbEntity
  8
Ancontension
  6
HIDDEN1_02
100
AcDbLine
 10
3269.238451439939
 20
-523.9350438620625
 30
0.0
 11
3370.23845143994
 21
-523.9350438620625
 31
0.0
  0
LINE
  5
156D4
330
DCF2
100
AcDbEntity
  8
Ancontension
  6
HIDDEN1_02
100
AcDbLine
 10
3241.23845143994
 20
-521.1850438620639
 30
0.0
 11
3269.238451439939
 21
-521.1850438620642
 31
0.0
  0
LINE
  5
156D5
330
DCF2
100
AcDbEntity
  8
Ancontension
  6
HIDDEN1_02
100
AcDbLine
 10
3241.23845143994
 20
-523.9350438620626
 30
0.0
 11
3241.23845143994
 21
-521.1850438620642
 31
0.0
  0
LINE
  5
156D6
330
DCF2
100
AcDbEntity
  8
Ancontension
  6
HIDDEN1_02
100
AcDbLine
 10
3269.238451439939
 20
-523.9350438620625
 30
0.0
 11
3269.238451439939
 21
-521.1850438620643
 31
0.0
  0
LINE
  5
156D7
330
DCF2
100
AcDbEntity
  8
Ancontension
  6
HIDDEN1_02
100
AcDbLine
 10
3260.988451439937
 20
-489.9350438620656
 30
0.0
 11
3260.988451439937
 21
-501.9350438620656
 31
0.0
  0
LINE
  5
156D8
330
DCF2
100
AcDbEntity
  8
Ancontension
  6
HIDDEN1_02
100
AcDbLine
 10
3249.488451439939
 20
-489.9350438620656
 30
0.0
 11
3249.488451439939
 21
-501.9350438620656
 31
0.0
  0
LINE
  5
156D9
330
DCF2
100
AcDbEntity
  8
Ancontension
100
AcDbLine
 10
3343.545944280396
 20
-489.9350438620663
 30
0.0
 11
3343.545944280396
 21
-501.935043862066
 31
0.0
  0
LINE
  5
156DA
330
DCF2
100
AcDbEntity
  8
Ancontension
100
AcDbLine
 10
3476.071565337161
 20
-539.7063751896753
 30
0.0
 11
3373.071565337159
 21
-553.5541475861241
 31
0.0
  0
ARC
  5
156DB
330
DCF2
100
AcDbEntity
  8
Ancontension
100
AcDbCircle
 10
3372.738451439939
 20
-551.0764399497235
 30
0.0
 40
2.5
100
AcDbArc
 50
180.0
 51
277.6571812775866
  0
LINE
  5
156DC
330
DCF2
100
AcDbEntity
  8
Ancontension
  6
HIDDEN1_02
100
AcDbLine
 10
3424.238451439939
 20
-524.4350438620653
 30
0.0
 11
3478.238451439937
 21
-524.4350438620653
 31
0.0
  0
LINE
  5
156DD
330
DCF2
100
AcDbEntity
  8
Ancontension
  6
HIDDEN1_02
100
AcDbLine
 10
3370.238451439939
 20
-523.9350438620653
 30
0.0
 11
3424.238451439939
 21
-523.9350438620653
 31
0.0
  0
ELLIPSE
  5
156DE
330
DCF2
100
AcDbEntity
  8
Ancontension
100
AcDbEllipse
 10
3388.302509698091
 20
-535.2299496283435
 30
0.0
 11
-4.25
 21
0.0
 31
0.0
210
0.0
220
0.0
230
-1.0
 40
0.70710678118652
 41
0.0
 42
6.283185307179585
  0
ARC
  5
156DF
330
DCF2
100
AcDbEntity
  8
Ancontension
100
AcDbCircle
 10
3475.738451439939
 20
-537.2286675532746
 30
0.0
 40
2.5
100
AcDbArc
 50
277.6571812775866
 51
0.0
  0
LINE
  5
156E1
330
DCF2
100
AcDbEntity
  8
Ancontension
100
AcDbLine
 10
3343.545944280396
 20
-266.93189554428
 30
0.0
 11
3267.966373501298
 21
-191.35232476518
 31
0.0
  0
ELLIPSE
  5
156E3
330
DCF2
100
AcDbEntity
  8
Ancontension
100
AcDbEllipse
 10
3388.302509698091
 20
-366.7268013105584
 30
0.0
 11
-4.25
 21
0.0
 31
0.0
210
0.0
220
0.0
230
-1.0
 40
0.70710678118652
 41
0.0
 42
6.283185307179585
  0
LINE
  5
156E4
330
DCF2
100
AcDbEntity
  8
Ancontension
100
AcDbLine
 10
3478.238451439938
 20
-368.7255192354896
 30
0.0
 11
3478.238451439938
 21
-286.1382718530709
 31
0.0
  0
LINE
  5
156E6
330
DCF2
100
AcDbEntity
  8
Ancontension
100
AcDbLine
 10
3370.238451439937
 20
-383.2455135929312
 30
0.0
 11
3370.238451439939
 21
-271.6182774956295
 31
0.0
  0
LINE
  5
156E7
330
DCF2
100
AcDbEntity
  8
Ancontension
100
AcDbLine
 10
3370.238451439939
 20
-272.2904994566221
 30
0.0
 11
3370.238451439937
 21
-382.5732916319385
 31
0.0
  0
LINE
  5
156E8
330
DCF2
100
AcDbEntity
  8
Ancontension
  6
HIDDEN1_02
100
AcDbLine
 10
3269.238451439939
 20
-467.9350438620625
 30
0.0
 11
3370.23845143994
 21
-467.9350438620627
 31
0.0
  0
LINE
  5
156E9
330
DCF2
100
AcDbEntity
  8
Ancontension
  6
HIDDEN1_02
100
AcDbLine
 10
3269.238451439939
 20
-470.6850438620644
 30
0.0
 11
3269.238451439939
 21
-467.9350438620625
 31
0.0
  0
LINE
  5
156EA
330
DCF2
100
AcDbEntity
  8
Ancontension
  6
HIDDEN1_02
100
AcDbLine
 10
3241.23845143994
 20
-470.685043862064
 30
0.0
 11
3241.23845143994
 21
-467.9350438620625
 31
0.0
  0
LINE
  5
156EB
330
DCF2
100
AcDbEntity
  8
Ancontension
  6
HIDDEN1_02
100
AcDbLine
 10
3241.23845143994
 20
-470.685043862064
 30
0.0
 11
3269.238451439939
 21
-470.6850438620641
 31
0.0
  0
ARC
  5
156EC
330
DCF2
100
AcDbEntity
  8
Ancontension
100
AcDbCircle
 10
3343.545944280396
 20
-556.4350438620648
 30
0.0
 40
121.0
100
AcDbArc
 50
82.34281872241325
 51
90.0
  0
LINE
  5
156ED
330
DCF2
100
AcDbEntity
  8
Ancontension
100
AcDbLine
 10
3368.07156533716
 20
-437.6437181770137
 30
0.0
 11
3359.668656905919
 21
-436.5139942602756
 31
0.0
  0
ARC
  5
156EE
330
DCF2
100
AcDbEntity
  8
Ancontension
100
AcDbCircle
 10
3367.738451439939
 20
-440.1214258134143
 30
0.0
 40
2.5
100
AcDbArc
 50
0.0
 51
82.34281872241325
  0
ARC
  5
156F0
330
DCF2
100
AcDbEntity
  8
Ancontension
100
AcDbCircle
 10
3343.545944280401
 20
-266.9318955442798
 30
0.0
 40
121.0
100
AcDbArc
 50
270.0
 51
277.6571812775866
  0
LINE
  5
156F1
330
DCF2
100
AcDbEntity
  8
Ancontension
100
AcDbLine
 10
3368.07156533716
 20
-385.7232212293319
 30
0.0
 11
3359.668656905923
 21
-386.8529451460691
 31
0.0
  0
ARC
  5
156F2
330
DCF2
100
AcDbEntity
  8
Ancontension
100
AcDbCircle
 10
3367.738451439937
 20
-383.2455135929312
 30
0.0
 40
2.5
100
AcDbArc
 50
277.6571812775866
 51
0.0
  0
LINE
  5
156F3
330
DCF2
100
AcDbEntity
  8
Ancontension
100
AcDbLine
 10
3476.071565337161
 20
-452.1637125344551
 30
0.0
 11
3373.071565337161
 21
-438.3159401380066
 31
0.0
  0
LINE
  5
156F4
330
DCF2
100
AcDbEntity
  8
Ancontension
  6
HIDDEN1_02
100
AcDbLine
 10
3424.238451439939
 20
-467.4350438620653
 30
0.0
 11
3478.238451439937
 21
-467.4350438620653
 31
0.0
  0
LINE
  5
156F5
330
DCF2
100
AcDbEntity
  8
Ancontension
  6
HIDDEN1_02
100
AcDbLine
 10
3370.238451439939
 20
-467.9350438620653
 30
0.0
 11
3424.238451439939
 21
-467.9350438620653
 31
0.0
  0
ELLIPSE
  5
156F6
330
DCF2
100
AcDbEntity
  8
Ancontension
100
AcDbEllipse
 10
3388.302509698091
 20
-456.6401380957868
 30
0.0
 11
-4.25
 21
0.0
 31
0.0
210
0.0
220
0.0
230
1.0
 40
0.70710678118652
 41
0.0
 42
6.283185307179585
  0
ARC
  5
156F7
330
DCF2
100
AcDbEntity
  8
Ancontension
100
AcDbCircle
 10
3372.738451439939
 20
-440.7936477744072
 30
0.0
 40
2.5
100
AcDbArc
 50
82.34281872241325
 51
180.0
  0
ARC
  5
156F8
330
DCF2
100
AcDbEntity
  8
Ancontension
100
AcDbCircle
 10
3475.738451439939
 20
-454.6414201708557
 30
0.0
 40
2.5
100
AcDbArc
 50
0.0
 51
82.34281872241325
  0
LINE
  5
156F9
330
DCF2
100
AcDbEntity
  8
Ancontension
100
AcDbLine
 10
3476.071565337161
 20
-371.2032268718903
 30
0.0
 11
3373.071565337159
 21
-385.0509992683392
 31
0.0
  0
ARC
  5
156FA
330
DCF2
100
AcDbEntity
  8
Ancontension
100
AcDbCircle
 10
3372.738451439939
 20
-382.5732916319385
 30
0.0
 40
2.5
100
AcDbArc
 50
180.0
 51
277.6571812775866
  0
ARC
  5
156FB
330
DCF2
100
AcDbEntity
  8
Ancontension
100
AcDbCircle
 10
3475.738451439939
 20
-368.7255192354896
 30
0.0
 40
2.5
100
AcDbArc
 50
277.6571812775866
 51
0.0
  0
LINE
  5
156FD
330
DCF2
100
AcDbEntity
  8
Ancontension
  6
HIDDEN1_02
100
AcDbLine
 10
3269.238451439939
 20
-299.4318955442776
 30
0.0
 11
3370.23845143994
 21
-299.4318955442776
 31
0.0
  0
LINE
  5
156FE
330
DCF2
100
AcDbEntity
  8
Ancontension
  6
HIDDEN1_02
100
AcDbLine
 10
3269.238451439939
 20
-355.4318955442777
 30
0.0
 11
3370.23845143994
 21
-355.4318955442777
 31
0.0
  0
LINE
  5
15700
330
DCF2
100
AcDbEntity
  8
Ancontension
  6
HIDDEN1_02
100
AcDbLine
 10
3241.23845143994
 20
-352.6818955442791
 30
0.0
 11
3269.238451439939
 21
-352.6818955442792
 31
0.0
  0
LINE
  5
15701
330
DCF2
100
AcDbEntity
  8
Ancontension
  6
HIDDEN1_02
100
AcDbLine
 10
3241.23845143994
 20
-355.4318955442777
 30
0.0
 11
3241.23845143994
 21
-352.6818955442792
 31
0.0
  0
LINE
  5
15702
330
DCF2
100
AcDbEntity
  8
Ancontension
  6
HIDDEN1_02
100
AcDbLine
 10
3269.238451439939
 20
-355.4318955442777
 30
0.0
 11
3269.238451439939
 21
-352.6818955442795
 31
0.0
  0
LINE
  5
15703
330
DCF2
100
AcDbEntity
  8
Ancontension
  6
HIDDEN1_02
100
AcDbLine
 10
3241.23845143994
 20
-302.1818955442789
 30
0.0
 11
3269.238451439939
 21
-302.1818955442792
 31
0.0
  0
LINE
  5
15704
330
DCF2
100
AcDbEntity
  8
Ancontension
  6
HIDDEN1_02
100
AcDbLine
 10
3241.23845143994
 20
-302.1818955442789
 30
0.0
 11
3241.23845143994
 21
-299.4318955442776
 31
0.0
  0
LINE
  5
15705
330
DCF2
100
AcDbEntity
  8
Ancontension
  6
HIDDEN1_02
100
AcDbLine
 10
3269.238451439939
 20
-302.1818955442793
 30
0.0
 11
3269.238451439939
 21
-299.4318955442776
 31
0.0
  0
ARC
  5
15707
330
DCF2
100
AcDbEntity
  8
Ancontension
100
AcDbCircle
 10
3343.545944280396
 20
-387.93189554428
 30
0.0
 40
121.0
100
AcDbArc
 50
82.34281872241325
 51
90.0
  0
LINE
  5
15708
330
DCF2
100
AcDbEntity
  8
Ancontension
100
AcDbLine
 10
3368.07156533716
 20
-269.1405698592288
 30
0.0
 11
3359.668656905919
 21
-268.0108459424906
 31
0.0
  0
ARC
  5
15709
330
DCF2
100
AcDbEntity
  8
Ancontension
100
AcDbCircle
 10
3367.738451439939
 20
-271.6182774956295
 30
0.0
 40
2.5
100
AcDbArc
 50
0.0
 51
82.34281872241325
  0
LINE
  5
1570C
330
DCF2
100
AcDbEntity
  8
Ancontension
  6
HIDDEN1_02
100
AcDbLine
 10
3424.238451439939
 20
-298.9318955442803
 30
0.0
 11
3478.238451439937
 21
-298.9318955442803
 31
0.0
  0
LINE
  5
1570D
330
DCF2
100
AcDbEntity
  8
Ancontension
  6
HIDDEN1_02
100
AcDbLine
 10
3424.238451439939
 20
-355.9318955442803
 30
0.0
 11
3478.238451439937
 21
-355.9318955442803
 31
0.0
  0
LINE
  5
1570E
330
DCF2
100
AcDbEntity
  8
Ancontension
  6
HIDDEN1_02
100
AcDbLine
 10
3424.238451439939
 20
-298.9318955442803
 30
0.0
 11
3424.238451439939
 21
-355.9318955442803
 31
0.0
  0
LINE
  5
1570F
330
DCF2
100
AcDbEntity
  8
Ancontension
  6
HIDDEN1_02
100
AcDbLine
 10
3370.238451439939
 20
-355.4318955442803
 30
0.0
 11
3424.238451439939
 21
-355.4318955442803
 31
0.0
  0
LINE
  5
15710
330
DCF2
100
AcDbEntity
  8
Ancontension
  6
HIDDEN1_02
100
AcDbLine
 10
3370.238451439939
 20
-299.4318955442803
 30
0.0
 11
3424.238451439939
 21
-299.4318955442803
 31
0.0
  0
LINE
  5
15711
330
DCF2
100
AcDbEntity
  8
Ancontension
100
AcDbLine
 10
3476.071565337161
 20
-283.6605642166702
 30
0.0
 11
3373.071565337161
 21
-269.8127918202215
 31
0.0
  0
ELLIPSE
  5
15712
330
DCF2
100
AcDbEntity
  8
Ancontension
100
AcDbEllipse
 10
3388.302509698091
 20
-288.136989778002
 30
0.0
 11
-4.25
 21
0.0
 31
0.0
210
0.0
220
0.0
230
1.0
 40
0.70710678118652
 41
0.0
 42
6.283185307179585
  0
ARC
  5
15713
330
DCF2
100
AcDbEntity
  8
Ancontension
100
AcDbCircle
 10
3372.738451439939
 20
-272.2904994566221
 30
0.0
 40
2.5
100
AcDbArc
 50
82.34281872241325
 51
180.0
  0
ARC
  5
15714
330
DCF2
100
AcDbEntity
  8
Ancontension
100
AcDbCircle
 10
3475.738451439939
 20
-286.1382718530709
 30
0.0
 40
2.5
100
AcDbArc
 50
0.0
 51
82.34281872241325
  0
CIRCLE
  5
15716
330
DCF2
100
AcDbEntity
  8
Ancontension
100
AcDbCircle
 10
3255.238451439939
 20
-204.080246826538
 30
0.0
 40
5.75
  0
ARC
  5
15717
330
DCF2
100
AcDbEntity
  8
Ancontension
100
AcDbCircle
 10
3255.238451439939
 20
-204.080246826538
 30
0.0
 40
18.0
100
AcDbArc
 50
44.99999999999078
 51
135.0000000000092
  0
TEXT
  5
15836
330
DCF2
100
AcDbEntity
  8
Ancontension
100
AcDbText
 10
3238.499408898057
 20
-408.028662880213
 30
0.0
 40
10.0
  1
56
  7
ROMANS
100
AcDbText
  0
VIEWPORT
  5
1077E
330
10777
100
AcDbEntity
 67
     1
  8
0
100
AcDbViewport
 10
5.649584071842704
 20
3.9337497996533
 30
0.0
 40
13.59960971915711
 41
8.742606248029574
 68
     1
 69
     1
 12
5.649584071842704
 22
3.9337497996533
 13
0.0
 23
0.0
 14
10.0
 24
10.0
 15
10.0
 25
10.0
 16
0.0
 26
0.0
 36
1.0
 17
0.0
 27
0.0
 37
0.0
 42
50.0
 43
0.0
 44
0.0
 45
8.742606248029574
 50
0.0
 51
0.0
 72
   100
 90
    32800
  1

281
     0
 71
     1
 74
     0
110
0.0
120
0.0
130
0.0
111
1.0
121
0.0
131
0.0
112
0.0
122
1.0
132
0.0
 79
     0
146
0.0
  0
VIEWPORT
  5
10780
330
10777
100
AcDbEntity
 67
     1
  8
DEFPOINTS
100
AcDbViewport
 10
5.649583752699723
 20
3.933750081250048
 30
0.0
 40
9.03933400431956
 41
6.294000130000076
 68
     2
 69
     2
 12
387.5355434982203
 22
270.7623806840798
 13
0.0
 23
0.0
 14
0.5
 24
0.5
 15
0.0
 25
0.0
 16
0.0
 26
0.0
 36
1.0
 17
0.0
 27
0.0
 37
0.0
 42
50.0
 43
0.0
 44
0.0
 45
90.26230401032616
 50
0.0
 51
0.0
 72
   100
 90
    32808
  1

281
     0
 71
     1
 74
     0
110
0.0
120
0.0
130
0.0
111
1.0
121
0.0
131
0.0
112
0.0
122
1.0
132
0.0
 79
     0
146
0.0
  0
ENDSEC
  0
SECTION
  2
OBJECTS
  0
DICTIONARY
  5
DCE7
330
0
100
AcDbDictionary
281
     1
  3
ACAD_GROUP
350
DCE8
  3
ACAD_LAYOUT
350
EBBD
  3
ACAD_MLINESTYLE
350
DCF5
  3
ACAD_PLOTSETTINGS
350
EBBE
  3
ACAD_PLOTSTYLENAME
350
EBBB
  3
AcadDim
350
EC1C
  3
ACDBHEADERROUNDTRIPXREC
350
159F1
  3
ACDBVARIABLEDICTIONARY
350
DD3A
  3
AVE_ACITABLE
350
EA5F
  0
DICTIONARY
  5
1586E
330
DCF2
100
AcDbDictionary
280
     1
281
     1
  3
ACAD_LAYOUTSELFREF
360
1586F
  0
DICTIONARY
  5
15847
330
10777
100
AcDbDictionary
280
     1
281
     1
  3
ACAD_LAYOUTSELFREF
360
1587C
  0
DICTIONARY
  5
DCE8
102
{ACAD_REACTORS
330
DCE7
102
}
330
DCE7
100
AcDbDictionary
281
     1
  0
DICTIONARY
  5
EBBD
102
{ACAD_REACTORS
330
DCE7
102
}
330
DCE7
100
AcDbDictionary
281
     1
  3
Layout1
350
10778
  3
Model
350
EBBF
  0
DICTIONARY
  5
DCF5
102
{ACAD_REACTORS
330
DCE7
102
}
330
DCE7
100
AcDbDictionary
281
     1
  3
STANDARD
350
DCF6
  0
DICTIONARY
  5
EBBE
102
{ACAD_REACTORS
330
DCE7
102
}
330
DCE7
100
AcDbDictionary
281
     1
  0
ACDBDICTIONARYWDFLT
  5
EBBB
102
{ACAD_REACTORS
330
DCE7
102
}
330
DCE7
100
AcDbDictionary
281
     1
  3
Normal
350
EBBC
100
AcDbDictionaryWithDefault
340
EBBC
  0
XRECORD
  5
EC1C
102
{ACAD_REACTORS
330
DCE7
102
}
330
DCE7
100
AcDbXrecord
280
     1
 90
   990106
  3

 60
     0
 61
     0
 62
     1
 63
     3
 64
     0
 65
     0
 66
     0
 67
     3
 68
     1
 69
     0
 70
     0
 71
     0
 72
     0
 40
0.0
170
     0
340
0
  0
DICTIONARY
  5
159F1
102
{ACAD_REACTORS
330
DCE7
102
}
330
DCE7
100
AcDbDictionary
281
     1
  3
CEPSNTYPE
350
159FB
  3
DIMSTYLEDATA
350
159FF
  3
FINGERPRINTGUID
350
159FC
  3
HYPERLINKBASE
350
159F4
  3
INSUNITS
350
159FA
  3
LAYOUTDICT
350
159F6
  3
LWETCUNION
350
159F9
  3
PLOTSETDICT
350
159F7
  3
PLOTSTYLNAMDICT
350
159F8
  3
PSVPSCALE
350
159FE
  3
PUCSBASE
350
15A02
  3
PUCSORGBACK
350
15A08
  3
PUCSORGBOTTOM
350
15A04
  3
PUCSORGFRONT
350
15A07
  3
PUCSORGLEFT
350
15A05
  3
PUCSORGRIGHT
350
15A06
  3
PUCSORGTOP
350
15A03
  3
PUCSORTHOREF
350
15A00
  3
PUCSORTHOVIEW
350
15A01
  3
STYLESHEET
350
159F5
  3
TSTACKALIGN
350
159F2
  3
TSTACKSIZE
350
159F3
  3
UCSBASE
350
15A0B
  3
UCSORGBACK
350
15A11
  3
UCSORGBOTTOM
350
15A0D
  3
UCSORGFRONT
350
15A10
  3
UCSORGLEFT
350
15A0E
  3
UCSORGRIGHT
350
15A0F
  3
UCSORGTOP
350
15A0C
  3
UCSORTHOREF
350
15A09
  3
UCSORTHOVIEW
350
15A0A
  3
VERSIONGUID
350
159FD
  0
DICTIONARY
  5
DD3A
102
{ACAD_REACTORS
330
DCE7
102
}
330
DCE7
100
AcDbDictionary
281
     1
  3
DIMADEC
350
DD3B
  3
DIMASSOC
350
EC17
  3
SORTENTS
350
E79F
  0
DICTIONARY
  5
EA5F
102
{ACAD_REACTORS
330
DCE7
102
}
330
DCE7
100
AcDbDictionary
281
     1
  0
XRECORD
  5
1586F
102
{ACAD_REACTORS
330
1586E
102
}
330
1586E
100
AcDbXrecord
280
     1
340
DCF2
  0
XRECORD
  5
1587C
102
{ACAD_REACTORS
330
15847
102
}
330
15847
100
AcDbXrecord
280
     1
340
10777
  0
LAYOUT
  5
10778
102
{ACAD_REACTORS
330
EBBD
102
}
330
EBBD
100
AcDbPlotSettings
  1

  2
\\Zeus\Xerox-Export
  4
A4
  6

 40
5.027083396911621
 41
5.027085304260253
 42
5.027069091796875
 43
5.027069091796875
 44
209.8886566162109
 45
297.0530090332031
 46
0.0
 47
0.0
 48
0.0
 49
0.0
140
0.0
141
0.0
142
1.0
143
1.0
 70
   688
 72
     0
 73
     1
 74
     5
  7

 75
    16
147
1.0
148
0.0
149
0.0
100
AcDbLayout
  1
Layout1
 70
     1
 71
     1
 10
-0.1979161059762549
 20
-0.1979166691697489
 11
11.49708424966165
 21
8.065416268476351
 12
0.0
 22
0.0
 32
0.0
 14
1.129916750539944
 24
0.78675001625001
 34
0.0
 15
10.1692507548595
 25
7.080750146250085
 35
0.0
146
0.0
 13
0.0
 23
0.0
 33
0.0
 16
1.0
 26
0.0
 36
0.0
 17
0.0
 27
1.0
 37
0.0
 76
     0
330
10777
331
1077E
  0
LAYOUT
  5
EBBF
102
{ACAD_REACTORS
330
EBBD
102
}
330
EBBD
100
AcDbPlotSettings
  1

  2
Ancon 1 A4
  4

  6

 40
0.0
 41
0.0
 42
0.0
 43
0.0
 44
0.0
 45
0.0
 46
0.0
 47
0.0
 48
0.0
 49
0.0
140
0.0
141
0.0
142
1.0
143
1.0
 70
  1712
 72
     0
 73
     0
 74
     0
  7

 75
     0
147
1.0
148
0.0
149
0.0
100
AcDbLayout
  1
Model
 70
     1
 71
     0
 10
0.0
 20
0.0
 11
12.0
 21
9.0
 12
0.0
 22
0.0
 32
0.0
 14
0.0
 24
0.0
 34
0.0
 15
0.0
 25
0.0
 35
0.0
146
0.0
 13
0.0
 23
0.0
 33
0.0
 16
1.0
 26
0.0
 36
0.0
 17
0.0
 27
1.0
 37
0.0
 76
     0
330
DCF2
  0
MLINESTYLE
  5
DCF6
102
{ACAD_REACTORS
330
DCF5
102
}
330
DCF5
100
AcDbMlineStyle
  2
STANDARD
 70
     0
  3

 62
   256
 51
90.0
 52
90.0
 71
     2
 49
0.5
 62
   256
  6
BYLAYER
 49
-0.5
 62
   256
  6
BYLAYER
  0
ACDBPLACEHOLDER
  5
EBBC
102
{ACAD_REACTORS
330
EBBB
102
}
330
EBBB
  0
XRECORD
  5
159FB
102
{ACAD_REACTORS
330
159F1
102
}
330
159F1
100
AcDbXrecord
280
     1
 90
        0
  0
XRECORD
  5
159FF
102
{ACAD_REACTORS
330
159F1
102
}
330
159F1
100
AcDbXrecord
280
     1
1000
DSTYLE
1002
{
1070
   179
 70
     2
1070
   279
 70
     2
1002
}
  0
XRECORD
  5
159FC
102
{ACAD_REACTORS
330
159F1
102
}
330
159F1
100
AcDbXrecord
280
     1
  1
{B88EE4EA-09A3-11D6-AAD2-00C04F189418}
  0
XRECORD
  5
159F4
102
{ACAD_REACTORS
330
159F1
102
}
330
159F1
100
AcDbXrecord
280
     1
  1

  0
XRECORD
  5
159FA
102
{ACAD_REACTORS
330
159F1
102
}
330
159F1
100
AcDbXrecord
280
     1
 90
        0
  0
XRECORD
  5
159F6
102
{ACAD_REACTORS
330
159F1
102
}
330
159F1
100
AcDbXrecord
280
     1
340
EBBD
  0
XRECORD
  5
159F9
102
{ACAD_REACTORS
330
159F1
102
}
330
159F1
100
AcDbXrecord
280
     1
 90
    10781
  0
XRECORD
  5
159F7
102
{ACAD_REACTORS
330
159F1
102
}
330
159F1
100
AcDbXrecord
280
     1
340
EBBE
  0
XRECORD
  5
159F8
102
{ACAD_REACTORS
330
159F1
102
}
330
159F1
100
AcDbXrecord
280
     1
340
EBBB
  0
XRECORD
  5
159FE
102
{ACAD_REACTORS
330
159F1
102
}
330
159F1
100
AcDbXrecord
280
     1
 40
0.0
  0
XRECORD
  5
15A02
102
{ACAD_REACTORS
330
159F1
102
}
330
159F1
100
AcDbXrecord
280
     1
340
0
  0
XRECORD
  5
15A08
102
{ACAD_REACTORS
330
159F1
102
}
330
159F1
100
AcDbXrecord
280
     1
 10
0.0
 20
0.0
 30
0.0
  0
XRECORD
  5
15A04
102
{ACAD_REACTORS
330
159F1
102
}
330
159F1
100
AcDbXrecord
280
     1
 10
0.0
 20
0.0
 30
0.0
  0
XRECORD
  5
15A07
102
{ACAD_REACTORS
330
159F1
102
}
330
159F1
100
AcDbXrecord
280
     1
 10
0.0
 20
0.0
 30
0.0
  0
XRECORD
  5
15A05
102
{ACAD_REACTORS
330
159F1
102
}
330
159F1
100
AcDbXrecord
280
     1
 10
0.0
 20
0.0
 30
0.0
  0
XRECORD
  5
15A06
102
{ACAD_REACTORS
330
159F1
102
}
330
159F1
100
AcDbXrecord
280
     1
 10
0.0
 20
0.0
 30
0.0
  0
XRECORD
  5
15A03
102
{ACAD_REACTORS
330
159F1
102
}
330
159F1
100
AcDbXrecord
280
     1
 10
0.0
 20
0.0
 30
0.0
  0
XRECORD
  5
15A00
102
{ACAD_REACTORS
330
159F1
102
}
330
159F1
100
AcDbXrecord
280
     1
340
0
  0
XRECORD
  5
15A01
102
{ACAD_REACTORS
330
159F1
102
}
330
159F1
100
AcDbXrecord
280
     1
 70
     0
  0
XRECORD
  5
159F5
102
{ACAD_REACTORS
330
159F1
102
}
330
159F1
100
AcDbXrecord
280
     1
  1

  0
XRECORD
  5
159F2
102
{ACAD_REACTORS
330
159F1
102
}
330
159F1
100
AcDbXrecord
280
     1
 90
        1
  0
XRECORD
  5
159F3
102
{ACAD_REACTORS
330
159F1
102
}
330
159F1
100
AcDbXrecord
280
     1
 90
       70
  0
XRECORD
  5
15A0B
102
{ACAD_REACTORS
330
159F1
102
}
330
159F1
100
AcDbXrecord
280
     1
340
0
  0
XRECORD
  5
15A11
102
{ACAD_REACTORS
330
159F1
102
}
330
159F1
100
AcDbXrecord
280
     1
 10
0.0
 20
0.0
 30
0.0
  0
XRECORD
  5
15A0D
102
{ACAD_REACTORS
330
159F1
102
}
330
159F1
100
AcDbXrecord
280
     1
 10
0.0
 20
0.0
 30
0.0
  0
XRECORD
  5
15A10
102
{ACAD_REACTORS
330
159F1
102
}
330
159F1
100
AcDbXrecord
280
     1
 10
0.0
 20
0.0
 30
0.0
  0
XRECORD
  5
15A0E
102
{ACAD_REACTORS
330
159F1
102
}
330
159F1
100
AcDbXrecord
280
     1
 10
0.0
 20
0.0
 30
0.0
  0
XRECORD
  5
15A0F
102
{ACAD_REACTORS
330
159F1
102
}
330
159F1
100
AcDbXrecord
280
     1
 10
0.0
 20
0.0
 30
0.0
  0
XRECORD
  5
15A0C
102
{ACAD_REACTORS
330
159F1
102
}
330
159F1
100
AcDbXrecord
280
     1
 10
0.0
 20
0.0
 30
0.0
  0
XRECORD
  5
15A09
102
{ACAD_REACTORS
330
159F1
102
}
330
159F1
100
AcDbXrecord
280
     1
340
0
  0
XRECORD
  5
15A0A
102
{ACAD_REACTORS
330
159F1
102
}
330
159F1
100
AcDbXrecord
280
     1
 70
     0
  0
XRECORD
  5
159FD
102
{ACAD_REACTORS
330
159F1
102
}
330
159F1
100
AcDbXrecord
280
     1
  1
{65265883-D4C0-4C7F-8193-FDC1C5F403A9}
  0
DICTIONARYVAR
  5
DD3B
102
{ACAD_REACTORS
330
DD3A
102
}
330
DD3A
100
DictionaryVariables
280
     0
  1
0
  0
DICTIONARYVAR
  5
EC17
102
{ACAD_REACTORS
330
DD3A
102
}
330
DD3A
100
DictionaryVariables
280
     0
  1
1
  0
DICTIONARYVAR
  5
E79F
102
{ACAD_REACTORS
330
DD3A
102
}
330
DD3A
100
DictionaryVariables
280
     0
  1
96
  0
ENDSEC
  0
EOF
